Song name
# A B C D E F G H I J K L M N O P Q R S T U V W X Y Z

What Happens Next - Charmuda tab

What Happens Next? - Charmuda
The First Year (2000)
Tabbed by ruker (Varuker@gmail.com)
Standard Tuning EADGBE

--------------
Key:
--------------
b  bend
r  release
/  slide up
\  slide down
--------------

(0:00)                                                          3x
||----------------------------------------------------------------||
||*--------------------------------------------------------------*||
||----------------------------------------------------------------||
||------------4-4---7-7---7-10101010101010101010101010--9---7-----||
||*-3---6-6---2-2---5-5---5-8-8-8-8-8-8-8-8-8-8-8-8-8---7---5----*||
||--1---4-4-------------------------------------------------------||


(0:11)
||----------------------------||
||*--------------------------*||
||----------------------------||
||--4/9\--4/9\--4/9\--4/9\----||
||*-2/7\--2/7\--2/7\--2/7\---*||
||----------------------------||


(0:15)
||----------------------------------------------------------------||
||*--------------------------------------------------------------*||
||----------------------------------------------------------------||
||------------4-4---7-7---7-10101010101010101010101010--9---7-----||
||*-3---6-6---2-2---5-5---5-8-8-8-8-8-8-8-8-8-8-8-8-8---7---5----*||
||--1---4-4-------------------------------------------------------||


(0:23)
||------------------------------------------------------------------------12------||
||------------------------------------------------------------------------15brbr--||
||--------------------------------------------------------------------------------||
||-4/9\--4/8\--4/7\--4/6\----------------4/9\--4/8\--4/7\--4/6\-------------------||
||-2/7\--2/6\--2/5\--2/4\---2------------2/7\--2/6\--2/5\--2/4\---2---------------||
||--------------------------0-------------------------------------0---------------||


(0:32)
||---------------------------|--------------------------------||
||*-------------------------*|*------------------------------*||
||---------------------------|--------------------------------||
||--4/9\--4/8\--4/7\--4/6\---|--4/9-9--4/8-8--4/7-7--4/6-6----||
||*-2/7\--2/6\--2/5\--2/4\--*|*-2/7-7--2/6-6--2/5-5--2/4-4---*||
||---------------------------|--------------------------------||


(0:40)
||--------------------------||
||--------------------------||
||--------------------------||
||------4-7---7------4-7----||
||-3----2-5---5-3----2-5----||
||-1------------1-----------||


(0:42)               4x
||---------------------||
||*-------------------*||
||---------------------||
||--10101010-4---7-----||
||*-8-8-8-8--2---5----*||
||---------------------||


(0:48)
||------------------------------------------||
||------------------------------------------||
||------------------------------------------||
||-10101010101010101010101010--9---7--------||
||-8-8-8-8-8-8-8-8-8-8-8-8-8---7---5---3----||
||-------------------------------------1----||
Tap to rate this tab
# A B C D E F G H I J K L M N O P Q R S T U V W X Y Z