Song name
# A B C D E F G H I J K L M N O P Q R S T U V W X Y Z

What Happens Next - Resolve tab

What Happens Next? - Resolve
The Second Year (2001)
Tabbed by ruker (Varuker@gmail.com)
Standard Tuning EADGBE

--------------
Key:
--------------
.  palm mute
nh natural harmonic
--------------

(0:00)
 Left
||-12-------------------------------||
||-nh-------------------------------||
||----------------------------------||
||----------------------------------||
||----------------------------------||
||----------------------------------||
|                                    |
|Right                               |
||----------------------------------||
||----------------------------------||
||-7--------------------------------||
||-nh-------------------------------||
||----------------------------------||
||----------------------------------||


(0:17)
 Both                               3x
||------------------------------------|--------------------------------||
||*----------------------------------*|--------------------------------||
||--8-8-8-8---------5-5-5-5-5-5-5-5---|-8-8-8-8---------5555---5555----||
||--8-8-8-8-7-7-7-7-5-5-5-5-5-5-5-5---|-8-8-8-8-7-7-7-7-5555---5555----||
||*-6-6-6-6-7-7-7-7-3-3-3-3-3-3-3-3--*|-6-6-6-6-7-7-7-7-3333---3333----||
||----------5-5-5-5-------------------|---------5-5-5-5----------------||


(0:24)              3x
||--------------------|-------------------||
||*------------------*|-------------------||
||--5-5-5-5-8-8-8-8---|-5---5---8-8-8-8---||
||--5-5-5-5-8-8-8-8---|-5---5---8-8-8-8---||
||*-3-3-3-3-6-6-6-6--*|-3---3---6-6-6-6---||
||--------------------|-------------------||


(0:27)
||------------------------------------|---------------------------------------||
||*----------------------------------*|---------------------------------------||
||--8-8-8-8---------5-5-5-5-5-5-5-5---|-8-8-8-8---------5------5------5-------||
||--8-8-8-8-7-7-7-7-5-5-5-5-5-5-5-5---|-8-8-8-8-7-7-7-7-5------5------5-------||
||*-6-6-6-6-7-7-7-7-3-3-3-3-3-3-3-3--*|-6-6-6-6-7-7-7-7-3------3------3-------||
||----------5-5-5-5-------------------|---------5-5-5-5-----------------------||
Tap to rate this tab
# A B C D E F G H I J K L M N O P Q R S T U V W X Y Z