Song name
# A B C D E F G H I J K L M N O P Q R S T U V W X Y Z

What Happens Next - Shadow Puppet Theatre Of War tab

What Happens Next? - Shadow Puppet Theatre Of War
The First Year (2000)
Tabbed by ruker (Varuker@gmail.com)
Standard Tuning EADGBE

--------------
Key:
--------------
b  bend
r  release
~  vibrato
/  slide up
\  slide down
--------------

(0:00)                              4x
||------------------------------------||
||*----------------------------------*||
||----------6-------7-----------------||
||--5-------6-------7-------8---------||
||*-5-------4-------5-------8--------*||
||--3-------4-------5-------6---------||


(0:13)
||-------------------------------------||
||-------------------------------------||
||-------------------------------------||
||-5----------4---4-----------4---4----||
||-5----------4---4-----------4---4----||
||-3----------2---2-----------2---2----||


(0:17)
||------------------------------------------------------------||
||*----------------------------------------------------------*||
||------------------------------------------------------------||
||--5-5-5-5-8-8-8-8-5-5-5-5-8-8-8-8-5-5-5-5-8-8-8-8-4---4-----||
||*-5-5-5-5-8-8-8-8-5-5-5-5-8-8-8-8-5-5-5-5-8-8-8-8-4---4----*||
||--3-3-3-3-6-6-6-6-3-3-3-3-6-6-6-6-3-3-3-3-6-6-6-6-2---2-----||


(0:22)                              4x
||------------------------------------||
||*----------------------------------*||
||----------6-6-6-6-7-7-7-7-----------||
||--5-5-5-5-6-6-6-6-7-7-7-7-8-8-8-8---||
||*-5-5-5-5-4-4-4-4-5-5-5-5-8-8-8-8--*||
||--3-3-3-3-4-4-4-4-5-5-5-5-6-6-6-6---||


(0:29)
||--------------------------------------------------------------||
||--------------------------------------------------------------||
||--------------------------------------------------------------||
||-------------------4---4-----------------------------4---4----||
||-5-/8--5-/8--5-/8--4---4-----------------------------4---4----||
||-3-/6--3-/6--3-/6--2---2---6\3/6~-/10\7/10~-/16br~---2---2----||


(0:34)
||------------------------------------------------------------||
||*----------------------------------------------------------*||
||------------------------------------------------------------||
||--5-5-5-5-8-8-8-8-5-5-5-5-8-8-8-8-5-5-5-5-8-8-8-8-4---4-----||
||*-5-5-5-5-8-8-8-8-5-5-5-5-8-8-8-8-5-5-5-5-8-8-8-8-4---4----*||
||--3-3-3-3-6-6-6-6-3-3-3-3-6-6-6-6-3-3-3-3-6-6-6-6-2---2-----||


(0:38)
||-----------------------------------||
||-----------------------------------||
||-----------------------------------||
||-5------------------------/\\-5----||
||-5------------------------/\\-5----||
||-3------------------------/\\-3----||
Tap to rate this tab
# A B C D E F G H I J K L M N O P Q R S T U V W X Y Z