Song name
# A B C D E F G H I J K L M N O P Q R S T U V W X Y Z

What Happens Next - The Tribe I Claim tab

What Happens Next? - The Tribe I Claim
The Second Year (2001)
Tabbed by ruker (Varuker@gmail.com)
Standard Tuning EADGBE

--------------
Key:
--------------
.  palm mute
/  slide up
\  slide down
--------------

(0:00)
 Left
||------------------------------------||
||*----------------------------------*||
||------------------------------------||
||------------------------------------||
||*-------------------------3-3-3-3--*||
||--------------------------1-1-1-1---||
|                           . . . .    |
|Right                                 |
||------------------------------------||
||*----------------------------------*||
||------------------------------------||
||--6-6---4-6-6---4-6-6---4-----------||
||*-4-4---2-4-4---2-4-4---2-3-3-3-3--*||
||--------------------------1-1-1-1---||
                            . . . .

(0:04)
 Both
||------------------------------------||
||*----------------------------------*||
||------------------------------------||
||--6-6---4-6-6---4-6-6---4-----------||
||*-4-4---2-4-4---2-4-4---2-3-3-3-3--*||
||--------------------------1-1-1-1---||
                            . . . .

(0:08)
||--------------------------------------------||
||--------------------------------------------||
||-6--------------------6---------------------||
||-6--------------------6---------------------||
||-4--------------------4---------------------||
||--------------------------------------------||


(0:12)
||----------------------------------------------------------------||
||*-------------------------------------------------3-3---3-0----*||
||--6-6---6-------------------------6-6---6---------4-4---4-1-----||
||--6-6---6-6-6---6-5-5---5-2-2---2-6-6---6-6-6---6-5-5---5-2-----||
||*-4-4---4-6-6---6-5-5---5-2-2---2-4-4---4-6-6---6-5-5---5-2----*||
||----------4-4---4-3-3---3-0-0---0---------4-4---4-3-3---3-0-----||


(0:20)
||----------------------------------------------------------------||
||----------------------------------------------------------------||
||-6----------------------4--4--4--6---------------9--8--7--6-----||
||-6----------------------4--4--4--6---------------9--8--7--6-----||
||-4----------------------2--2--2--4---------------7--6--5--4-----||
||----------------------------------------------------------------||


(0:26)
 Left
||----------------------------------------------------------------||
||----------------------------------------------------------------||
||-6-------------------------------6------------------------------||
||-6-------------------------------6------------------------------||
||-4-------------------------------4---------------5--5--5--2-----||
||-------------------------------------------------3--3--3--0-----||
|                                                  .  .  .  .      |
|Right                                                             |
||----------------------------------------------------------------||
||----------------------------------------------------------------||
||-6-6---6-------------------------6-6---6------------------------||
||-6-6---6-6-6---6-5-5---5-2-2---2-6-6---6-6-6---6----------------||
||-4-4---4-6-6---6-5-5---5-2-2---2-4-4---4-6-6---6-5--5--5--2-----||
||---------4-4---4-3-3---3-0-0---0---------4-4---4-3--3--3--0-----||
                                                   .  .  .  .

(0:30)
 Both
||--------------------------------------------------------------|
||-------------------------------------------------3-3---3-0----|
||-6-6---6-------------------------6-6---6---------4-4---4-1----|
||-6-6---6-6-6---6-5-5---5-2-2---2-6-6---6-6-6---6-5-5---5-2----|
||-4-4---4-6-6---6-5-5---5-2-2---2-4-4---4-6-6---6-5-5---5-2----|
||---------4-4---4-3-3---3-0-0---0---------4-4---4-3-3---3-0----|


|----------------------------------------------------------------------------------||
|----------------------------------------------------------------------------------||
|-6-6---6-------------------------6-6---6-------------------------6----------------||
|-6-6---6-6-6---6-5-5---5-2-2---2-6-6---6-6-6---6-----------------6----------------||
|-4-4---4-6-6---6-5-5---5-2-2---2-4-4---4-6-6---6-5--5--5--2------4----------------||
|---------4-4---4-3-3---3-0-0---0---------4-4---4-3--3--3--0-----------------------||
                                                  .  .  .  .
Tap to rate this tab
 
# A B C D E F G H I J K L M N O P Q R S T U V W X Y Z