Guitaretab - guitar tabs
Song name
# A B C D E F G H I J K L M N O P Q R S T U V W X Y Z

Whatever It Takes - City Streets Summer Heat tab

-------------------------------------------------------------------------------
		City Streets & Summer Heat  Whatever It Takes
-------------------------------------------------------------------------------
Tabbed by: Ben Parle
Email: livetoride___ridetolive@hotmail.com

Tuning: Standard

~  vibrato
x  Mute note
p  pull-off

Intro
e|------------------------------------| 
B|------------------------------------|
G|-121212x101010x10101010101010101010-|
D|-121212x101010x10101010101010101010-|
A|-101010x-8-8-8x-8-8-8-8-8-8-8-8-8-8-|
E|------------------------------------|

Main Riff (listen to song for timing)
e|---------------------| 
B|-------8~-------866~-|
G|----6--------6-------|
D|-0--------0----------|
A|---------------------|
E|---------------------|

Verse (muted)
e|----------------------| 
B|----------------------|
G|-888-666-444444444444-|
D|-888-666-444444444444-|
A|-666-444-222222222222-|x4
E|----------------------|
[ Tab from: http://www.guitaretab.com/w/whatever-it-takes/69504.html ]
Chorus (Guitar 1)
e|--------------------------------------------------------------------------| 
B|--------------------------------------------------------------------------|
G|-888888888888-6666-4444444444444444-888888888888-6666-44-4-44-4-44-4-44-4-|
D|-888888888888-6666-4444444444444444-888888888888-6666-44-4-44-4-44-4-44-4-|
A|-666666666666-4444-2222222222222222-666666666666-4444-22-2-22-2-22-2-22-2-|x2
E|--------------------------------------------------------------------------|
Pm.                                                     **   **   **   **

Chorus (Guitar 2)
e|-------------------------|
B|------------------8p6~---|
G|-8~6~8~6~86-4~-----------|
D|-8~6~8~6~86-4~-----------|
A|-6~4~6~4~64-2~-----------|x4
E|-------------------------|

Bridge
e|--------------------------------| 
B|--------------------------------|
G|-88-88-88-88-66--44-44-44-44-22-|
D|-88-88-88-88-66--44-44-44-44-22-|
A|-66-66-66-66-44--22-22-22-22-00-|
E|--------------------------------|

Guitar 1			Guitar 2

Intro x2			Nothing
Intro x6			Main Riff x3
Intro x4		      Main Riff x2
Verse				Nothing
Verse				Main Riff x2
Chorus			Chorus
Verse				Nothing
Verse				Main Riff x2
Chorus			Chorus 
Nothing			Feedback	 
Nothing			Main Riff x2
Bridge x4			Bridge x4
Bridge x2			Main Riff x2
Chorus			Chorus (3rd guitar plays main riff x4)
Nothing			Main Riff x2


===============================================================================

Related for City Streets Summer Heat tab