Song name
# A B C D E F G H I J K L M N O P Q R S T U V W X Y Z

Whats Eating Gilbert - Ive Got You chords

Highlighted       Show chord diagrams
What's Eating Gilbert - I've Got You

Intro
C, F,Am,G,F,Am,G

Verse
C
I, I found my way out
          F      Am   G 
 From the bottom of a barrel
 F      Am      G        C
 No one to take care of me

 Then you came along
           F          Am     G
 With your smile from ear to ear
         F       Am         G
 And you made my heart feel whole again

Chorus
          Am                  G
 They can hate on me all they want
           E                Am
 Call me a user, say you're too young
            F             G
 But in the end, I've got you
                C 
 And they've got zip

Verse
    C
 No I'm not bulletproof but
     F     Am        G
 See I can take your cheapshots
        F         Am        G         C
 'Cause I've been through a whole lot more

 And know a good thing
     F       Am      G
 And I'm not letting you go
         F       Am        G
 There's so much that they don't know

Chorus
          Am                  G
 They can hate on me all they want
           E                Am
 Call me a user, say you're too young
            F             G
 But in the end, I've got you
                C 
 And they've got zip 
               Am                         G
 Yeah they can start all the rumours they want
           E                     Am
 Call me a cheater, say that I'm scum
               F              G
 But when it's done, I've got you
                 C
 And they've got shit


solo
e|---------------------------------------------------------------------------------|
B|---------------------------------------------------------------------------------|
G|---xx--8-7-5-----5-7--8-7-5-----5-7--10-10-9-9-7--------10-10-12-9-7-5--------5~-|
D|---xx--------5-7------------5-7-----------------5-5h7-5----------------5-5h7-5---|
A|---xx----------------------------------------------------------------------------|
E|---------------------------------------------------------------------------------|

e|---------------------------------------------------------------------------------------|
B|---------------------------------------------------------------------------17-15-13-12-|
G|--------5-7-8-7-5--8-7-5----10-10-9-9-7---------10-10-12-12-14-12-12h14-12-------------|
D|----5-7-----------7------7--------------5-5h7-5----------------------------------------|
A|---------------------------------------------------------------------------------------|
E|---------------------------------------------------------------------------------------|


Final Chorus
 Am                  G
 Hate on me all they want
           E                Am
 Call me a user, say you're too young
            F             G
 But in the end, I've got you
                 C 
 And they've got zip 
               Am                         G
 Yeah they can start all the rumours they want
           E                     Am
 Call me a cheater, say that I'm scum
               F              G
 But when it's done, I've got you
                 Am
 And they've got shit 
                F              G 
 Yeah when it's done, I've got you
                 C
 And they've got shit
Tap to rate this tab
# A B C D E F G H I J K L M N O P Q R S T U V W X Y Z