Guitaretab - guitar tabs
Song name
# A B C D E F G H I J K L M N O P Q R S T U V W X Y Z

When These Days End - Battlezone tab

	        Battlezone - When these days end (NJHC)


Tabbed by: drawtheline
Email: xxsaddlexupxx@aim.com

Tuning: dadgbe

 myspace.com/whenthesedaysend    south jersey hardcore

Intro

e|--------------------------------------------------------------------------|
B|--------------------------------------------------------------------------|
G|------------ 10~----x4--------then-----------------------------ringout x4-|
D|-----0~-------8~----------------------8---7-----3/5---------0~------------|
A|-----0~-------8~----------------------8---7-----3/5---------0~------------|
D|-----0~-------8~----------------------8---7-----3/5---------0~------------|

Verse 1
[ Tab from: http://www.guitaretab.com/w/when-these-days-end/78277.html ]
e|--------------------------------------------------------------------------|
B|--------------------------------------------------------------------------|
G|-------------------------------------x3----then---------------------------|
D|---0---------------8-----7-------3/5---------------8~----10~----7~--------|
A|---0----000000-----8--0--7--0----3/5---------------8~----10~----7~--------|
D|---0----000000-----8--0--7--0----3/5---------------8~----10~----7~--------|
       .     .

Verse 2

e|--------------------------------------------------------------------------|
B|--------------------------------------------------------------------------|
G|-----------------------------------------------------x6?------------------|
D|--00~---00~-----7---8--------00~---00~-----8----3/5-----------------------|
A|--00~---00~-----7---8--------00~---00~-----8----3/5-----------------------|
D|--00~---00~-----7---8--------00~---00~-----8----3/5-----------------------|

Breakdown

e|--------------------------------------------------------------------------|
B|--------------------------------------------------------------------------|
G|----------------10--------------------------------------------------------|
D|-----------------8-------------end with-----------------------------------|
A|-----------------8--------------------------------------------------------|
D|----000-000---00-8--------------------------000-000-----------------------|      
... ... ..                            ... ...

| /  slide up
| \  slide down
| h  hammer-on
| p  pull-off
| ~  vibrato
| +  harmonic
| x  Mute note