Guitaretab - guitar tabs
Song name
# A B C D E F G H I J K L M N O P Q R S T U V W X Y Z

Whigs - Right Hand On My Heart tab

No one else had one so here is a tab of The Whigs main song on their new album Mission 
The tuning is standard.

Intro/Hook

|-----2-2-2-2-2-2-|-----------2---------2-2---|
|-----2-2-2-2-2-2-|-----------2---------2-2---|
|--0--0-0-0-0-0-0-|-----------0---------0-0---|
|-----0-0-0-0-0-0-|-----------0---------0-0---|
|-----2-2-2-2-2-2-|-----------2---------2-2---|
|-3---3-3-3-3-3-3-|---3-3-3-3-3-3-3-3-3-3-3---|

Chorus

|----------------------------|
|----------------------------|
|----------------------------|           The hook always follows the chorus
|----------------------------|
|----------------------------|
|-33333333333333333333333333-|

Verse
[ Tab from: http://www.guitaretab.com/w/whigs/109001.html ]
|-0-0-0-0-0-|-0-0-0-0-0-|
|-1-1-1-1-1-|-1-1-1-1-1-|
|-0-0-0-0-0-|-0-0-0-0-0-|
|-3-3-3-3-3-|-2-2-2-2-2-|
|-3-3-3-3-3-|-3-3-3-3-3-|
|-----------|-----------|

Bridge (It's something like this)

|----------|
|8-9b-8-9b-|
|----------|             Repeat as necessary
|----------|
|----------|
|----------|


The verse changes

|------------------------------------------------|
|------------------------------------------------|
|------------------------------------------------|
|5-5-5-5-5-5-5-5-5-5-5-5-3-3-3-3-3-3-3-3-3-3-3-3-|
|5-5-5-5-5-5-5-5-5-5-5-5-3-3-3-3-3-3-3-3-3-3-3-3-|
|3-3-3-3-3-3-3-3-3-3-3-3-1-1-1-1-1-1-1-1-1-1-1-1-|

Parker doesn't play guitar on the last verse