While She Sleeps - Hearts Aside Our Horses tab

D#|-15-------15-------15-------15-------15----------|
A#|----13-------13-------13-------13-------13-15-16-|
F#|-------12-------12-------12-------12-------------|
C#|-------------------------------------------------|
G#|-------------------------------------------------|
C#|-------------------------------------------------|

D#|-15-------15-------15-------15-------15----------|
A#|----13-------13-------13-------13-------13-15-16-|
F#|-------12-------12-------12-------12-------------|
C#|-------------------------------------------------|
G#|-------------------------------------------------|
C#|-------------------------------------------------|

D#|-15-------15-------15-------15-------15----------|
A#|----13-------13-------13-------13-------13-15-16-|
F#|-------12-------12-------12-------12-------------|
C#|-------------------------------------------------|
G#|-------------------------------------------------|
C#|-------------------------------------------------|

D#|-15-------15-------15-------15-------15----------|
A#|----13-------13-------13-------13-------13-------|
F#|-------12-------12-------12-------12-------12v---|
C#|-------------------------------------------------|
G#|-------------------------------------------------|
C#|-------------------------------------------------|

D#|-10h11p10---------10h11p10-----------------------11----11h13p11----------|
A#|----------11-8-11----------11-8\6-8-6------11-13----13----------13-11-13-|
F#|--------------------------------------8-7--------------------------------|
C#|-------------------------------------------------------------------------|
G#|-------------------------------------------------------------------------|
C#|-------------------------------------------------------------------------|

D#|-15-----------------6---6h8p6-------10-------11--------------------------|
A#|----13-11-13v---6-8---8-------8-6-8----8-6-8----8-6-8-6------------------|
F#|---------------------------------------------------------8--7b-----------|
C#|-------------------------------------------------------------------------|
G#|-------------------------------------------------------------------------|
C#|-------------------------------------------------------------------------|

D#|-10h11p10---------10h11p10-----------------------11----11h13p11----------|
A#|----------11-8-11----------11-8\6-8-6------11-13----13----------13-11-13-|
F#|--------------------------------------8-7--------------------------------|
C#|-------------------------------------------------------------------------|
G#|-------------------------------------------------------------------------|
C#|-------------------------------------------------------------------------|

D#|-15-----------------6---6h8p6-------10-------11--------------------------|
A#|----13-11-13v---6-8---8-------8-6-8----8-6-8----8-6-8-6------------------|
F#|---------------------------------------------------------8--7--11v-------|
C#|-------------------------------------------------------------------------|
G#|-------------------------------------------------------------------------|
C#|-------------------------------------------------------------------------|
Tap to rate this tab
 
# A B C D E F G H I J K L M N O P Q R S T U V W X Y Z