Song name
# A B C D E F G H I J K L M N O P Q R S T U V W X Y Z

While She Sleeps - Hearts Aside Our Horses tab

D#|-17-------17-------17-------17-------17----------|
A#|----15-------15-------15-------15-------15-17-18-|
F#|-------14-------14-------14-------14-------------|
C#|-------------------------------------------------|
G#|-------------------------------------------------|
C#|-------------------------------------------------|

D#|-17-------17-------17-------17-------17----------|
A#|----15-------15-------15-------15-------15-17-18-|
F#|-------14-------14-------14-------14-------------|
C#|-------------------------------------------------|
G#|-------------------------------------------------|
C#|-------------------------------------------------|

D#|-17-------17-------17-------17-------17----------|
A#|----15-------15-------15-------15-------15-17-18-|
F#|-------14-------14-------14-------14-------------|
C#|-------------------------------------------------|
G#|-------------------------------------------------|
C#|-------------------------------------------------|

D#|-17-------17-------17-------17-------17----------|
A#|----15-------15-------15-------15-------15-------|
F#|-------14-------14-------14-------14-------14v---|
C#|-------------------------------------------------|
G#|-------------------------------------------------|
C#|-------------------------------------------------|

D#|-12h13p12---------12h13p12------------------------13----13h15p13---------|
A#|----------13-10-13---------13-10\8-10-8-----13-15----15----------15-13-15|
F#|----------------------------------------10-9-----------------------------|
C#|-------------------------------------------------------------------------|
G#|-------------------------------------------------------------------------|
C#|-------------------------------------------------------------------------|

D#|-17------------------8----8h10p8---------12---------13-------------------|
A#|----15-13-15v---8-10---10--------10-8-10----10-8-10----10-8-10-8---------|
F#|------------------------------------------------------------------10--9b-|
C#|-------------------------------------------------------------------------|
G#|-------------------------------------------------------------------------|
C#|-------------------------------------------------------------------------|

D#|-12h13p12---------12h13p12------------------------13----13h15p13---------|
A#|----------13-10-13---------13-10\8-10-8-----13-15----15----------15-13-15|
F#|----------------------------------------10-9-----------------------------|
C#|-------------------------------------------------------------------------|
G#|-------------------------------------------------------------------------|
C#|-------------------------------------------------------------------------|

D#|-17------------------8----8h10p8---------12---------13-------------------|
A#|----15-13-15v---8-10---10--------10-8-10----10-8-10----10-8-10-8---------|
F#|------------------------------------------------------------------10-9\12|
C#|-------------------------------------------------------------------------|
G#|-------------------------------------------------------------------------|
C#|-------------------------------------------------------------------------|
Tap to rate this tab
 
# A B C D E F G H I J K L M N O P Q R S T U V W X Y Z