Song name
# A B C D E F G H I J K L M N O P Q R S T U V W X Y Z

While She Sleeps - Believe tab

While She Sleeps , Be(lie)ve

Intro Lead

-17-------15-17---------------------------15-17--------------------|
----17-15------17-15--15-15-13-15----17-15------17-15--15-15-13-15-|
----------------------------------14-------------------------------|
-------------------------------------------------------------------|
-------------------------------------------------------------------|
-------------------------------------------------------------------|

-17-------15-17-------------------------------------|
----17-15------17-15--15-15-13-15-------15-15-15-13-|
----------------------------------14(x8)------------|
----------------------------------------------------|
----------------------------------------------------|
----------------------------------------------------|

-17-------15-17------------------------------------------|
----17-15------17-15--15-15-13-15------------------------|
----------------------------------14-17p16-17p16p14------|
---------------------------------------------------15-14-|
---------------------------------------------------------|
---------------------------------------------------------|

-17-------15-17---------------------------------------------|
----17-15------17-15--15-15-13-15---------------------------|
----------------------------------14(x3)-12(x3)-10-10-9-7p5-|
------------------------------------------------------------|
------------------------------------------------------------|
------------------------------------------------------------|

Intro Rhythm

-----------------------------------------------------------------|
-----------------------------------------------------------------|
-----------------------------------------------------------------|
-7-7-7--7-7-7-7--10--10-10-10-7-10--3-3-3--3-3-3-3--3-3--3-3-3-3-| x4
-7-7-7--7-7-7-7--10--10-10-10-7-10--3-3-3--3-3-3-3--3-3--3-3-3-3-|
-7-7-7--7-7-7-7--10--10-10-10-7-10--3-3-3--3-3-3-3--3-3--3-3-3-3-|

(Everything after this both guitars play)

Pre Verse

---------------------------|
--------------------4------|
--------------------7------|
-0--------0---------0------|
-0--------0---------0------|
-0--------0(x24)----0(x8)--|

Verse Both Guitars

----------------------------------------------------|
---4----4----4--------------4----4------------------|
---7----7----7--------------7----7------------------|
-0---00----00-------------0---00-----------6-5-3-1--| x4
-0---00----00--3-3-3-3-6--0---00----6-5-3--6-5-3-1--|
-0---00----00-------------0---00-----------6-5-3-1--|

After Verse

----------------------------------------------------|
----------------------------------------------------|
----------------------------------------------------|
--0--0--0--0---0-0-0--0-0-0--0-0-0--0--0--1-4-------|
--0--0--0--0---0-0-0--0-0-0--0-0-0--0--0--1-4-------|
--0--0--0--0---0-0-0--0-0-0--0-0-0--0--0--1-4-------|

--------------------------------------------------|
--------------------------------------------------|
--------------------------------------------------|
--0--0--0--0---0-0-0--0-0-0--0-0-0--0--0--3-0-3-1-|
--0--0--0--0---0-0-0--0-0-0--0-0-0--0--0--3-0-3-1-|
--0--0--0--0---0-0-0--0-0-0--0-0-0--0--0--3-0-3-1-|

After Verse 2

-------------------------------------------------------------|
-------------------------------------------------------------|
--------------------5-5-5-5----------------------------------|
-0-0-0--0--3-0-3-0--5-5-5-5--0-0-0--0--3-0-3-0--0-0--6-5-3-1-| x2
-0-0-0--0--3-0-3-0--3-3-3-3--0-0-0--0--3-0-3-0--0-0--6-5-3-1-|
-0-0-0--0--3-0-3-0-----------0-0-0--0--3-0-3-0--0-0--6-5-3-1-|

Pre Chorus

--------------------------------------|
--------------------------------------|
--------------------------------------|
-7------2-----3------0-0-0------------|
-7(x28)-2(x4)-3(x16)-0-0-0--pickslide-|
-7------2-----3------0-0-0------------|

------------------------------------------------------------|
------------------------------------------------------------|
------------------------------------------------------------|
-7------2-----3------0-----6-----7------2-----3------5------|
-7(x28)-2(x4)-3(x16)-0(x8)-6(x8)-7(x28)-2(x4)-3(x16)-5(x16--|
-7------2-----3------0-----6-----7------2-----3------5------|

Chorus

----------------------------|
----------------------------|
----------------------------|
-7------3--3-3--0-0--0-0-0--| x4
-7(x16)-3--3-3--0-0--0-0-0--|
-7------3--3-3--0-0--0-0-0--|

Pre Verse

------------------------------------------|
------------------------------------------|
------------------------------------------|
--0--0--0--0---0-0-0--0-0-0--0-0-0--0--0--|
--0--0--0--0---0-0-0--0-0-0--0-0-0--0--0--|
--0--0--0--0---0-0-0--0-0-0--0-0-0--0--0--|

---------------------------|
---------------------4-----|
---------------------7-----|
--0--0--0--0---0-----0-----|
--0--0--0--0---0(x8--------|0(x8)
--0--0--0--0---0-----0-----|

Verse

----------------------------------------------------|
---4----4----4--------------4----4------------------|
---7----7----7--------------7----7------------------|
-0---00----00-------------0---00-----------6-5-3-1--| x2
-0---00----00--3-3-3-3-6--0---00----6-5-3--6-5-3-1--|
-0---00----00-------------0---00-----------6-5-3-1--|

After Verse

----------------------------------------------------|
----------------------------------------------------|
----------------------------------------------------|
--0--0--0--0---0-0-0--0-0-0--0-0-0--0--0--1-4-------| x3
--0--0--0--0---0-0-0--0-0-0--0-0-0--0--0--1-4-------|
--0--0--0--0---0-0-0--0-0-0--0-0-0--0--0--1-4-------|

--------------------------------------------------|
--------------------------------------------------|
--------------------------------------------------|
--0--0--0--0---0-0-0--0-0-0--0-0-0--0--0--3-0-3-1-|
--0--0--0--0---0-0-0--0-0-0--0-0-0--0--0--3-0-3-1-|
--0--0--0--0---0-0-0--0-0-0--0-0-0--0--0--3-0-3-1-|

Pre Ending

--------------------------------------------------------------|
--------------------------------------------------------------|
--------------------------------------------------------------|
-000-000-000-000-000-000-000000000--000-000-000-000--3-0-3-1--| x2
-000-000-000-000-000-000-000000000--000-000-000-000--3-0-3-1--|
-000-000-000-000-000-000-000000000--000-000-000-000--3-0-3-1--|


----------------------------------------------------|
----------------------------------------------------|
----------------------------------------------------|
--0--0--0--0---0-0-0--0-0-0--0-0-0--0--0--1-4-------|
--0--0--0--0---0-0-0--0-0-0--0-0-0--0--0--1-4-------|
--0--0--0--0---0-0-0--0-0-0--0-0-0--0--0--1-4-------|

Ending

------0----------------|
------0----------------|
------0----------------|
-0----0----0-----------|
-0----0----0-----------|
-0----0----0-----------|
Tap to rate this tab
# A B C D E F G H I J K L M N O P Q R S T U V W X Y Z