Song name
# A B C D E F G H I J K L M N O P Q R S T U V W X Y Z

While She Sleeps - Crows tab

While She Sleeps, Crows

Okay guys lets face it if youve seen the tab on songsterr the lead guitars chorus is 
hard as fuck haha so ive simplified it but it still sounds good ;)

This tab is just the lead guitar

Intro

--13-------12-13-12------------------    ----------------|
--------10----------10---------------    ---------12-----|
-----10----------------10------------    ------------10--|
------------------------------------- x6 --10-10---------|
-------------------------------------    ----------------|
-------------------------------------    ----------------|

--13-------12-13-12------------------    -------------------|
--------10----------10---------------    -------------------|
-----10----------------10------------    --10---10-12-9--5--|
------------------------------------- x6 --x----x--xx-x--x--|
-------------------------------------    --8----8--10-7--3--|
-------------------------------------    -------------------|

Verse

--------8--     --13-------12-13-12--------    -----------12--13-13-13-13--|
-----10----     --------10----------10-----    --10----10-----10-10-10-10--|
--10-------     -----10----------------10--    -----10--------10-10-10-10--|
----------- x16 --------------------------- x7 ----------------------------|
-----------     ---------------------------    ----------------------------|
-----------     ---------------------------    ----------------------------|

After Verse

--------------------------------------------------------------------------|
--------------------------------------------------------------------------|
--------------------------------------------------------------------------|
--------------------------------------------------------------------------|
--------------------------------------------------------------------------|
--0-------0-0--0-0--0000--0-0--0-0--0-0-0-0-0-0--0-0--0-0--0000-0-0--0-0--|

------------------------------------------------|
--------------------------------4-4-4-4-4-4-----|
--------------------------------7-7-7-7-7-7-----|
------------------------------------------------|
------------------------------------------------|
--00000--0-0--0-0--0-0--0000000--------------0--|

After Verse 2

-------------------------------------------|
-------------------------------------------|
-------------------------------------------|
-------------------------------------------|
-------------------------------------------|
--0-0--0-0--0-0-0-0-0-0--0-0--0-0--8-5-4-4-|
                                                x2
----------------------------------------------|
----------------------------------------------|
----------------------------------------------|
----------------------------------------------|
-------------------------------------------8--|
--0-0--0-0--0-0-0-0-0-0--0-0--0-0--8-5-4-4----|

Pre Chorus

-------------------------------------|
-------------------------------------|
-------------------------------------|
-------------------------------------|
--0-0-0-0-0-0-0-0-0-0-0-0-5-4-0-1-0--|
--0-0-0-0-0-0-0-0-0-0-0-0-5-4-0-1-0--|

---------------------------------------|
-------------------4--4----------------|
-------------------7--7----------------|
---------------------------------------|
--0-0-0-0-0-0-0-0-----------5-4-0-1-0--|
--0-0-0-0-0-0-0-0----0---0--5-4-0-1-0--|

-------------------------------------|
-------------------------------------|
-------------------------------------|
-------------------------------------|
--0-0-0-0-0-0-0-0-0-0-0-0-5-4-0-1-0--|
--0-0-0-0-0-0-0-0-0-0-0-0-5-4-0-1-0--|

-----------------------------------|
-------------------4--4------------|
-------------------7--7------------|
-----------------------------------|
--0-0-0-0-0-0-0-0-----------5-4-0--|
--0-0-0-0-0-0-0-0----0---0--5-4-0--|

Build Up

--------------------------------------|
--------------------------------------|
--------------------------------------|
--------------------------------------|
--8--8-8-8-8-8-8-8--8--3-3-3-3-3-3-3--|
--5--5-5-5-5-5-5-5--5--7-7-7-7-7-7-7--|

After Verse 3

------------------------------------------|
------------------------------------------|
------------------------------------------|
--0---------------------------------------|
--0----0-0-0-0-0-0-0-0-0-0-0-0-5-4-0-1-0--|
--0----0-0-0-0-0-0-0-0-0-0-0-0-5-4-0-1-0--|

---------------------------------------|
-------------------4--4----------------|
-------------------7--7----------------|
---------------------------------------|
--0-0-0-0-0-0-0-0-----------5-4-0-1-0--|
--0-0-0-0-0-0-0-0----0---0--5-4-0-1-0--|

-------------------------------------|
-------------------------------------|
-------------------------------------|
-------------------------------------|
--0-0-0-0-0-0-0-0-0-0-0-0-5-4-0-1-0--|
--0-0-0-0-0-0-0-0-0-0-0-0-5-4-0-1-0--|

----------------------------------------|
-------------------4--4-----------------|
-------------------7--7-----------------|
----------------------------------------|
--0-0-0-0-0-0-0-0-----------8-7-0-4--0--|
--0-0-0-0-0-0-0-0----0---0--8-7-0-4--0--|

-------------------------------------|
-------------------------------------|
-------------------------------------|
-------------------------------------|
--0-0-0-0-0-0-0-0-0-0-0-0-8-7-0-4-0--|
--0-0-0-0-0-0-0-0-0-0-0-0-8-7-0-4-0--|

----------------------------------------|
-------------------4--4-----------------|
-------------------7--7-----------------|
----------------------------------------|
--0-0-0-0-0-0-0-0-----------8-7-0-4--0--|
--0-0-0-0-0-0-0-0----0---0--8-7-0-4--0--|

-----------------------------------|
-------------------4--4------------|
-------------------7--7------------|
-----------------------------------|
--0-0-0-0-0-0-0-0-----------8-7-0--|
--0-0-0-0-0-0-0-0----0---0--8-7-0--|

Build Up

--------------------------------------|
--------------------------------------|
--------------------------------------|
--------------------------------------|
--8--8-8-8-8-8-8-8--8--3-3-3-3-3-3-3--|
--5--5-5-5-5-5-5-5--5--7-7-7-7-7-7-7--|

Chorus (Simplified and awesome)

-------8-----    ------------|
-------------    ----6-10-6--|
--9-10---10--    --7---------|
------------- x8 ------------| x8
-------------    ------------|
-------------    ------------|

-------------    ------5----|
------6------    ----6---6--|
----7---7----    --5--------|
--5---------- x4 -----------|
-------------    -----------| x4
-------------    -----------|

-------------    ------5----|
------6------    ----6---6--|
----7---7----    --5--------|
--5---------- x4 -----------|
-------------    -----------| x4
-------------    -----------|

After Chorus

--------------------------------------------------------------------------|
--------------------------------------------------------------------------|
--------------------------------------------------------------------------|
--------------------------------------------------------------------------|
--------------------------------------------------------------------------|
--0-------0-0--0-0--0000--0-0--0-0--0-0-0-0-0-0--0-0--0-0--0000-0-0--0-0--|

Build Up

------------------------------|
------------------------------|
-----------------------6------|
--12-----11-----12-----x(x6)--|
--12(x6)-11(x6)-12(x6)-4------|
--10-----7------10------------|

Pre Ending

---------------------------------------------------------------|
----------------------4---4---4---------------------4---4---4--|
----------------------7---7---7---------------------7---7---7--|
---------------------------------------------------------------|
---------------------------------------------------------------|
--0-1-0-5-4-1-0-1-0-----0---0-----0-1-0-5-4-1-0-1-0---0---0----|

---------------------------|
---------------------------|
---------------------------|
---------------------------|
---------------------------|
--0-1-0-5-4-0--1-1-1-3-3-3-|

---------------------------------------------------------------|
----------------------4---4---4---------------------4---4---4--|
----------------------7---7---7---------------------7---7---7--|
---------------------------------------------------------------|
---------------------------------------------------------------|
--0-4-0-8-7-4-0-4-0-----0---0-----0-4-0-8-7-4-0-4-0---0---0----|

Ending

------------------------------------------------------|
------------------------------------------------------|
-----------------------------------7------------------|
-----------------------1-----3-----x(x6)-5-5-5-3-3-3--|
-----------------------1(x6)-3(x6)-5-----5-5-5-3-3-3--|
--0-4-0-8-7-4-0-4-0----1-----3-----------5-5-5-3-3-3--|

---------------------------------|
---------------------------------|
--------------7------------------|
--1-----3-----x(x6)-5-5-5-3-3-3--|
--1(x6)-3(x6)-5-----5-5-5-3-3-3--|
--1-----3-----------5-5-5-3-3-3--|

---------------------------------|
---------------------------------|
---------------7p5---------------|
--1-----3----------8-------------|
--1(x6)-3(x4)--------------------|
--1-----3------------------------|
Tap to rate this tab
# A B C D E F G H I J K L M N O P Q R S T U V W X Y Z