Song name
# A B C D E F G H I J K L M N O P Q R S T U V W X Y Z

While She Sleeps - Hearts Aside Our Horses tab

eb|------------9\5---5---------------------------------------------------------|
Bb|----------------9---7-------------------------------------------------------|
Gb|-6/11-9-11-----------6\2--2--2----------6----------6---------2-6------------|
C#|-------------------------6--6--4--2/4-7---4-2/4--7---7-4-2-6----------------|
Ab|----------------------------------------------------------------------------|
C#|----------------------------------------------------------------------------|

eb|-----------9\5---5---------------------------------------9---5--------------|
Bb|---------------9---7---------------------------------------7---7------------|
Gb|---11-9-11----------6\2--2--2----------6---------9-6-7----------------------|
C#|------------------------6--6--4--2/4-7---4-7-6-7----------------------------|
Ab|----------------------------------------------------------------------------|
C#|----------------------------------------------------------------------------|

eb|------------9\5---5-------------------------------------------------------|
Bb|---10-9-10-----9----7-----------------------------------------------------|
Gb|----------------------6\2--2--2----------6----------6---------2-6---------|
C#|--------------------------6--6--4--2/4-7---4-2/4--7---7-4-2-6-------------|
Ab|--------------------------------------------------------------------------|
C#|--------------------------------------------------------------------------|

eb|-----------9\5---5---------------------------------------9---5--------------|
Bb|---------------9---7---------------------------------------7---7------------|
Gb|---11-9-11----------6\2--2--2----------6----------9-6-7---------------------|
C#|------------------------6--6--4--2/4-7---4-7-6--7---------------------------|
Ab|----------------------------------------------------------------------------|
C#|----------------------------------------------------------------------------|

eb|------------9\5---5-------------------------------------------------------|
Bb|---10-9-10-----9----7-----------------------------------------------------|
Gb|----------------------6\2--2--2----------6----------6---------2-6---------|
C#|--------------------------6--6--4--2/4-7---4-2/4--7---7-4-2-6-------------|
Ab|--------------------------------------------------------------------------|
C#|--------------------------------------------------------------------------|

eb|-----------9\5---5---------------------------------------9---5--------------|
Bb|---------------9---7---------------------------------------7---7------------|
Gb|---11-9-11----------6\2--2--2----------6----------9-6-7---------------------|
C#|------------------------6--6--4--2/4-7---4-7-6--7---------------------------|
Ab|----------------------------------------------------------------------------|
C#|----------------------------------------------------------------------------|
Tap to rate this tab
# A B C D E F G H I J K L M N O P Q R S T U V W X Y Z