Song name
# A B C D E F G H I J K L M N O P Q R S T U V W X Y Z

While She Sleeps - The Chapel tab

A very easy song to play but sounds awesome
WSS usually play in Drop C or C# but this is tabbed for standard tuning



|-13---11-10-----10-10-11-10----|---13---11-10-----10-10-11-|
|-----------11--------------11--|-------------11------------|
|-------------12--------------12|---------------12----------|
|-------------------------------|---------------------------|
|-------------------------------|---------------------------|
|-------------------------------|---------------------------|



|-13---11-10-----10-10-11-10----|11-11-11-10-10-10-10/15-15-15-15\8~-|
|-----------11--------------11--|------------------------------------|
|-------------12--------------12|------------------------------------|
|-------------------------------|------------------------------------|
|-------------------------------|------------------------------------|
|-------------------------------|------------------------------------|



There are some parts missing from this that I haven't figured out yet (listen to the 
song and you'll hear it)
and a second guitar but this is the basic gist and is played throughout
Tap to rate this tab
# A B C D E F G H I J K L M N O P Q R S T U V W X Y Z