Song name
# A B C D E F G H I J K L M N O P Q R S T U V W X Y Z

Whind Of Change - Ill Be There tab

Help us improve GuitareTab! Take a short survey!
Artist:Whind of Change
Song: I'll be there
Summited by Bryant Barrera

Intro
E----------0----|-----0-------|-----0----|-------0--------|
B------------0--|-------0-----|-------0--|---------0------|
G---------------|-------------|----------|----------------|
D-9/11----------|--9----------|--7-------|--7/9-------7---|
A---------------|-----------9-|----------|----------------|
E---------------|-------------|----------|----------------|

Verse 1
          X2                    x2         x2         x2
E-----0----|-----0-------------|-----0----|-----0----|
B-------0--|-------0-----------|-------0--|-------0--|
G--6-------|--4----------------|--2-------|--4-------|
D--6-------|--4----------------|--2-------|--4-------|
A----------|-------------------|----------|----------|
E----------|-------------------|----------|----------|

Ill be there to pick you up      Ill never let you down
My worlds an empty blur           When you not around

Ill be there to see you leave    I wont forget you face
Maybe someday Ill go             and leave this place

Chorus

E----------|-------------------|----------|----------|
B----------|-------------------|----------|----------|
G--6-------|--4----------------|--2-------|--4-------|
D--6-------|--4----------------|--2-------|--4-------|
A--4-------|--2----------------|--0-------|--2-------|
E----------|-------------------|----------|----------|

Cause Im never let in           Im always let out
I talk in a whisper               I hear in a shout

Close my eyes and all I see       is the blindness that you feel for me
Talk to you, you dont listen     a moment without you is one Im missing

RIFF 1
Verse2
I see you standing there          youre close enough to touch
But all I do is stare             at what I can never have

At what will never be             I wish I would had said 
I wish that you could see         that you are the only one for me

Chorus
RIFF 1

Verse3
Cause What I wanted to say       Never came out the what
Cause what you wanted to do      I only got in the way
Related for Ill Be There tab