Guitaretab - guitar tabs
Song name
# A B C D E F G H I J K L M N O P Q R S T U V W X Y Z

Whind Of Change - Summers Breeze tab

Artist: Whind of Change
Song: Summers Breeze

Capo 2nd fret, frets relative to capo

Intro
E---------------------|-------------------x--x-|
B---------------------|-------------------x--x-|
G-------------------9-|-------------------9--9-|
D-------------------7-|-------------------7--7-|
A--2-s-5-5-5-6-6-0--7-|--0-s-5-5-5-6-6-0--7--7-|
E--0---0---0---0------|--2---0---0---0----0--0-|

Verse
E---------------|----------------|
B---------------|----------------|
G--4----------2-|--6-----4-----2-|
D--4----------2-|--6-----4-----2-|
A--2----------0-|--4-----2-----0-|
E---------------|----------------|

If I were as low, as a summers breeze
I couldnít walk, only blow upon her seas
Fragile existence once more, to wash up on her shore
Iíve sensed what emotion; Iíve longed to live for
I canít sleep, knowing that love is a leap
Youíre my desire, to jump

Chorus				
E---------------------|
B---------------------|
G--4----8-/-9----4--2-|
D--4----8-/-9----4--2-|
A--2----6-/-7----2--0-|
E---------------------|

1.  Youíre all of what life is bound, and sustained
3.  Of all thatís lost, your memory remains

E------------------------|
B------------------------|
G--4----8-/-9----6--4--2-|
D--4----8-/-9----6--4--2-|
A--2----6-/-7----4--2--0-|
E------------------------|

2.  In a clutter of thoughts, I dare to name
4.  Your heart and soul, all of which I cannot tame
[ Tab from: http://www.guitaretab.com/w/whind-of-change/31971.html ]
E-------------|-----------------|
B-------------|-----------------|
G--13--11--9--|--13--16--11--9--|
D--11--9---7--|--11--14--9---7--|
A-------------|-----------------|
E-------------|-----------------|

Youíre just a summerís breeze, on my face
A summerís breeze to take me, away from this place

E----------0---------|---------0---------|--------0-------|
B--------0------0----|-------0------0----|------0-----0---|
G-----13-----13---13-|----11-----11---11-|----9-----9---9-|
D--11----------------|--9----------------|--7-------------|
A--------------------|-------------------|----------------|
E--------------------|-------------------|----------------|

E----------0---------|----------0---------|---------0---------|--------0-------|
B--------0------0----|--------0------0----|-------0------0----|------0-----0---|
G-----13-----13---13-|-----16-----16---16-|----11-----11---11-|----9-----9---9-|
D--11----------------|--14----------------|--9----------------|--7-------------|
A--------------------|--------------------|-------------------|----------------|
E--------------------|--------------------|-------------------|----------------|

Verse
E---------------|----------------|
B---------------|----------------|
G--4----------2-|--6-----4-----2-|
D--4----------2-|--6-----4-----2-|
A--2----------0-|--4-----2-----0-|
E---------------|----------------|

If I were as high, as a summers breeze
I couldnít step, only pace below your haze
Blemished existence to soar, on down to your earth
Iíve lived only to die, before your gorgeous face
I canít sleep, knowing that love is a leap
Youíre my desire, to jump
Related for Summers Breeze tab