Guitaretab - guitar tabs
Song name
# A B C D E F G H I J K L M N O P Q R S T U V W X Y Z

Whiplash - Ministry Of Deceit tab

RHYTHM GUITAR

1/2 Step Down

------------------------------
------------------------------  (Riff 1)
------------------------------
------------------------------ x2
--7-7-9-5-7-7-3-5-7-7-9-5-7~-- 
---0-0-0-0-0-0-0-0-0-0-0-0----
[ Tab from: http://www.guitaretab.com/w/whiplash/113601.html ]
------------------------------               -
------------------------------                |
------------------------------   (Riff 2)     |
--9~~11-7-9~~-5-7-9~~11-7-9~~- x6             |
--7~~-9-5-7~~-3-5-7~~-9-5-7~~-                |
------------------------------                |
                                              |
------------------------------ -              |
------------------------------  |             |
------------------------------  |             |
-----9-----9-----9--11-7------  | (Riff 3)    |
--7777--7777--7777---9-5------  |             |
------------------------------  |              > x2
  ...                           |             |
                                 > x2         |
------------------------------  |             |
------------------------------  |             |
------------------------------  |             |
-----9-----9-----9--7-11------  |             |
--7777--7777--7777--5--9------  |             |
------------------------------  |             |
                               -              |
                                             - 

Go Back And Play Riff 1 (x8)

Death, Lies and Preeching
Death is all we see
Killing bloody liars
Ministry of Deceit
Lowered in the flames
Scarcefully we will be
Killing bloody men in the 
Ministry of Deceit

Damn the hell around us
Fearfully we flee
Killing all the rebels
Ministry of Deceit
Die everyone
and than we can be
Killed in the depths of hell
Ministry of deceit

We have all been taken by the
Ministry of deceit

Related for Ministry Of Deceit tab