Guitaretab - guitar tabs
Song name
# A B C D E F G H I J K L M N O P Q R S T U V W X Y Z

Whiplash - Fear Is Real tab

RHYTHM GUITAR

INTRO (CLEAN)
------------------------------------|
------------------------------------|
-------9-7-----7-5-----5-4-----4-5--|
---9-10-----7-9-----5-7-----4-5-----|
--0--------0-------0-------0--------|
------------------------------------|

------------------------------------|
------------------------------------|
-------9-7-----7-5-----5-4-----4-2--|
---9-10-----7-9-----5-7-----4-5-----|
--0--------0-------0-------0--------|
------------------------------------|

CHORUS (REST OF SONG, DISTORTED)
--------------------------------|
--------------------------------|
------9-7----7-5----5-4----4-5--|
-----10-9----9-7----7-5----5-7--|
--000-----000----000----000-----|
--------------------------------|
  ...     ...    ...    ...     x2
--------------------------------|
--------------------------------|
--------------------------------|
------9-7----7-5----5-4----4-2--|
-----10-9----9-7----7-5----5-3--|
--000-----000----000----000-----|
--------------------------------|
  ...     ...    ...    ...
----------------------------------|
----------------------------------|
-----9--9s7--7-7s5--5-5s4--4-4s5--|
----10-10s9--9-9s7--7-7s5--5-5s7--|
--00-------00-----00-----00-------|
----------------------------------|
  ..       ..     ..     ..       x2
----------------------------------|
----------------------------------|
-----9--9s7--7-7s5--5-5s4--4-4s2--|
----10-10s9--9-9s7--7-7s5--5-5s3--|
--00-------00-----00-----00-------|
----------------------------------|
  ..       ..     ..     ..

VERSE 1
------------------|
------------------|
------------------|
--2~-5~-7~-9-7-5--| x8
--0~-3~-5~-7-5-3--|
------------------|

CHORUS 2
--------------------------------|
--------------------------------|
------9-7----7-5----5-4----4-5--|
-----10-9----9-7----7-5----5-7--|
--000-----000----000----000-----|
--------------------------------|
  ...     ...    ...    ...     x2
--------------------------------|
--------------------------------|
--------------------------------|
------9-7----7-5----5-4----4-2--|
-----10-9----9-7----7-5----5-3--|
--000-----000----000----000-----|
--------------------------------|
  ...     ...    ...    ...
----------------------------------|
----------------------------------|
-----9--9s7--7-7s5--5-5s4--4-4s5--|
----10-10s9--9-9s7--7-7s5--5-5s7--|
--00-------00-----00-----00-------|
----------------------------------|
  ..       ..     ..     ..       x2
----------------------------------|
----------------------------------|
-----9--9s7--7-7s5--5-5s4--4-4s2--|
----10-10s9--9-9s7--7-7s5--5-5s3--|
--00-------00-----00-----00-------|
----------------------------------|
  ..       ..     ..     ..
[ Tab from: http://www.guitaretab.com/w/whiplash/114020.html ]
VERSE 2
------------------|
------------------|
------------------|
--2~-5~-7~-9-7-5--| x8
--0~-3~-5~-7-5-3--|
------------------|

Play During Bass Line
---------|
---------|
---------|
--2~~-5--|
--0~~-3--| x2
---------|

VERSE 3(Solo Section)
------------------|
------------------|
------------------|
--2~-5~-7~-9-7-5--| x8
--0~-3~-5~-7-5-3--|
------------------|

Play During Bass Line 2
---------|
---------|
---------|
--2~~-5--|
--0~~-3--| x4
---------|

CHORUS 3
--------------------------------|
--------------------------------|
------9-7----7-5----5-4----4-5--|
-----10-9----9-7----7-5----5-7--|
--000-----000----000----000-----|
--------------------------------|
  ...     ...    ...    ...     x2
--------------------------------|
--------------------------------|
--------------------------------|
------9-7----7-5----5-4----4-2--|
-----10-9----9-7----7-5----5-3--|
--000-----000----000----000-----|
--------------------------------|
  ...     ...    ...    ...
----------------------------------|
----------------------------------|
-----9--9s7--7-7s5--5-5s4--4-4s5--|
----10-10s9--9-9s7--7-7s5--5-5s7--|
--00-------00-----00-----00-------|
----------------------------------|
  ..       ..     ..     ..       x2
----------------------------------|
----------------------------------|
-----9--9s7--7-7s5--5-5s4--4-4s2--|
----10-10s9--9-9s7--7-7s5--5-5s3--|
--00-------00-----00-----00-------|
----------------------------------|
  ..       ..     ..     ..

VERSE 4(OUTRO)
------------------|
------------------|
------------------|
--2~-5~-7~-9-7-5--| x4
--0~-3~-5~-7-5-3--|
------------------|

-------------------------------------|
-------------------------------------|
-------------------------------------|
--222222222222222222222222~~~-----2--|
--000000000000000000000000~~~-----0--|
-------------------------------------|

This fear is real
Thunder and lightning
It's fear I feel
Fearfully fighting
This fear is real       VERSE
The thought of dying
It's fear I feel
Lying and hiding
This Fear is real

Time to die
Time to cry
Time is here
Fear is real
Time to see       CHORUS x2
What I see
What I feel
Fear is real

This fear is real
Fleeing from their sight
It's fear I feel
Run from what will bite        VERSE
This fear is real
There's nothing left for me
It's fear I feel
Fear is what I see
This fear is real
                         SOLO SECTION
Time is here
So in fear
We're in fright
The world ends tonight   BASS LINE VERSE
Time we see
Death we see
Death we feel
This fear is so real

Time to die
Time to cry
Time is here
Fear is real
Time to see
What I see
What I feel
Fear is real
                            CHORUS 2
Time for you
Killing too
Killing here
Fear is real
Time for me
Time to be
What I feel
Fear is real
Related for Fear Is Real tab