Guitaretab - guitar tabs
Song name
# A B C D E F G H I J K L M N O P Q R S T U V W X Y Z

Whiplash - Waitingfading tab

This is the solo tab for our original song, Waiting/Fading.
Standard Tuning
Difficulty - 6/10


E-------------------------------------8-------------------------|
B-------------------------------------8-------------------------|
G--8/12~--13p12-10-12-10h12-8-10-8h10---10-8h10-8-10s12---------|
D---------------------------------------------------------------|
A---------------------------------------------------------------|
E---------------------------------------------------------------|


E----------------------10-12-12b-10----10----------------------------------|
B--------10-------10-12-------------12----12-11-10---10--------------------|
G--10h12----10h12----------------------------------12--12-11-10------------|
D--------------------------------------------------------------------------|
A--------------------------------------------------------------------------|
E--------------------------------------------------------------------------|

[ Tab from: http://www.guitaretab.com/w/whiplash/114678.html ]
E--------------------------------|
B--------------------------------|
G--10s12-10-8-10-10s12--10-8-10--| x2
D-0-----0--0-0---------0--0-0----|
A--------------------------------|
E--------------------------------|

E----------------------------------------------------------------------|
B--10-10s12-12-12s14-14-14s16-14b-18p16-19p16-18p16-19p16-18p16-19p16--|
G-0--------0--------0--------0-----------------------------------------|
D----------------------------------------------------------------------|
A----------------------------------------------------------------------|
E----------------------------------------------------------------------|


E----------------------------------------------|
B-18b-18r-18r-18r-18---18--18--18--18--18------|
G-18b-18r-18r-18r-18-18--18--18--18--18--18~---|
D----------------------------------------------|
A----------------------------------------------|
E----------------------------------------------|

enjoy.


Codywells411@hotmail.com
Related for Waitingfading tab