Guitaretab - guitar tabs
Song name
# A B C D E F G H I J K L M N O P Q R S T U V W X Y Z

Whiplash - Shadow tab

------0--------0---------------|
----1--1---1--1---3--3--0------|
-----2--2-2--2---0--0--2----0--|
---------3--2--------------0---| x2
--0-------------3--2--0---2----|
-------------------------3-----|

----------------------- -- |
----1----1----1-------- -- |
-----2----2----2----0-- -- |
---2----2----2-----0--- -- |
--0----0----0-----2---- -- |
-----------------3----- -- |
                          > x6
----------------------- -- |
----1----1----1-----3-- -- |
-----2----2----2---4--- -- |
---2----2----2----4---- -- |
--0----0----0----2----- -- |
----------------------- -- |

------0--------0---------------|
----1--1---1--1---3--3--0------|
-----2--2-2--2---0--0--2----0--|
---------3--2--------------0---| x2
--0-------------3--2--0---2----|
-------------------------3-----|

----------------------- -- |
----1----1----1-------- -- |
-----2----2----2----0-- -- |
---2----2----2-----0--- -- |
--0----0----0-----2---- -- |
-----------------3----- -- |
                          > x6
----------------------- -- |
----1----1----1-----3-- -- |
-----2----2----2---4--- -- |
---2----2----2----4---- -- |
--0----0----0----2----- -- |
----------------------- -- |

------0--------0---------------|
----1--1---1--1---3--3--0------|
-----2--2-2--2---0--0--2----0--|
---------3--2--------------0---| x2
--0-------------3--2--0---2----|
-------------------------3-----|
[ Tab from: http://www.guitaretab.com/w/whiplash/171191.html ]
--------|
----1---|
-----2--|
---2----| x16
--0-----|
--------|

------0--------0---------------|
----1--1---1--1---3--3--0------|
-----2--2-2--2---0--0--2----0--|
---------3--2--------------0---| x2
--0-------------3--2--0---2----|
-------------------------3-----|

--------|
----1---|
-----2--|
---2----| x16
--0-----|
--------|

----------------------- -- |
----1----1----1-------- -- |
-----2----2----2----0-- -- |
---2----2----2-----0--- -- |
--0----0----0-----2---- -- |
-----------------3----- -- |
                          > x6
----------------------- -- |
----1----1----1-----3-- -- |
-----2----2----2---4--- -- |
---2----2----2----4---- -- |
--0----0----0----2----- -- |
----------------------- -- |

-------
--1~~--
--2~~--
--2~~--
--0~~--
-------

Shadow
Rised over me
Shadow
Now I can't see
I kneel
Down to my knees
I feel
Wind from the trees

Shadow

Deep and dark shadows
Creeping upon me
Following my every move
Deep and dark shadows
Sweeping upon me
Watching my every move

Shadow

Shadow
Knows when I'm near
Shadow
Knows it's my fear
Hollow
Forest leaves that blow
Follow
Me and don't let go


Deep and dark shadows
Creeping upon me
Following my every move
Deep and dark shadows
Sweeping upon me
Watching my every move

Shadow

Shadow

Awake
I lie in my bed
It's fake
A tear will I shed
Shadow
As scary as it seemed
Shadow
It was just a dream

Shadow
Related for Shadow tab