Whiplash - Power Thrashing Death tab

Power Thrashing Death by Whiplash off the "Power and Pain" album

Verse and Intro
E|---------------------------------3h4p3h4p3h4p3h4--------------------------|
B|--------------------------------------------------3h4p3h4p3h4p3h4p1-------|
G|--------------------------------------------------------------------------|
D|-5-----------5---5---------5----------------------------------------------|
A|-3-3-3-3-3---3---3-3-3-3---3----------------------------------------------|
E|--------------------------------------------------------------------------|

E|--------------------------------------------------------------------------|
B|--------------------------------------------------------------------------|
G|--------------------------------------------------------------------------|
D|-5-----------5---5-----------5-----------------3-------3------------------|
A|-3-3-3-3-3---3---3-3-3-3-3---3-----6---3---6---1---3---1------------------|
E|-----------------------------------4---1---4-------1----------------------|


Chorus
E|--------------------------------------------------------------------------|
B|--------------------------------------------------------------------------|
G|-------------------7--5--7--5--7------------------------------------------|
D|-5-----------------5--3--5--3--5------------------------------------------|
A|-3-----6-----8------------------------------------------------------------|
E|-------4-----6------------------------------------------------------------|



E|--------------------------------------------------------------------------|
B|--------------------------------------------------------------------------|
G|--------------------------------------------------------------------------|
D|-5---7---8---10---8---7-----6-----18--------------------------------------|
A|-3---5---6----8---6---5-----6-----18--------------------------------------|
E|----------------------------4-----16--------------------------------------|
Tap to rate this tab
 
# A B C D E F G H I J K L M N O P Q R S T U V W X Y Z