Song name
# A B C D E F G H I J K L M N O P Q R S T U V W X Y Z

Whipping Boy - We Dont Need Nobody Else tab

e: Mon, 16 Mar 1998 13:18:38 PST
From: Tomcat ----------- 
Subject: TAB: 'We don't need nobody else' by Whipping Boy

Title	: We Don't Need Nobody Else.
Artist	: Whipping Boy.
Track	: 5
CD	: Heartworm.
-------------------------------------------------------------------

Intro+verse1:(no distortion) High notes played by guitar, low notes played
by bass. 

Part 1: 
e-----------------------------------------1-1-1-0-0-------------------------
B------------------3---3------------------------------3---------------------
G--------------------2---2--------------------------------------------------
D---------------------------------------------------------------------------
A--0-3-0-3-0-8-----------0-3-0-3-0------------------------------------------
E-----------------------------------------6-6-6-5-5-3-----------------------
Play this twice while singing:

In the morning  I'm on recluse...
Lost in memories, ideal situations and convulsions...
I'm never in and I can't remember...

Part 2: Only guitar.
e--------------------------------------------------------------------------
B---1--1--1-1/3-3--3--3----------1--1--1-----------------------------------
G-2--2--2----------2--2--0------2--2--2---2-2-5\3-3-3-3-2-2-0--------------
D--------------------------------------------------------------------------
A--------------------------------------------------------------------------
E--------------------------------------------------------------------------
Play twice while singing:

They built portholes for Bone, so he could gaze
Out across the bay and sing about montains maybe...
You are what you own in this land, you can be King,
and it all depends on the view and what you can see...
And around her nobody tells me what to do anymore !!!

Strofe : (with distortion): F C D Bm  while guitar 2 plays:
e -5-5------5-5----------5-5--------------------------------------------
B------5-6------5-6-5-6-----5-6-8-8-8-6-6-5-----------------------

We Don't Need Nobody Else... (x4).

Verse 2: Same as Verse 1.(without distortion)

Part 1:
Why say words that I do not... mean.
They only serve to amuse, ridicule and destroy,
Hardly ever to teach. I held you for the first time today...
I didn't mean it, it just happened.
Part 2:
You wouldn't let me go to the phone,
You wanted to make love and I did not...
Now I know there's a distance between us.
Christ, we weren't even fighting, just anoyed.
Silence, and you started to cry, that realy hurt me yeah...
And you thought you knew me !!

Strofe: (with distortion).

We don't need nobody else...
We don't need nobody else...   Just you and me! 
We don't need nobody else...
We don't need nobody else...   Just you and me! 
We don't need nobody else...
We don't need nobody else...   Just you and me! 
..............................................   Just you and me!
..............................................   Just you and me!


Bridge: G A Bm

Consider this as the wine that takes it all and shakes into your vaines... 
I try to stop it, but it's not thin...  Love gives you confort and confort
makes you dim, she's in the kitchen...  Putting bees in her hair...  It
all came out tonight, the queen of the night broke down and cried... 
Cause she's been chaking her best winning guy, she knew the fall, she knew
the light. 

She wasn't shy and she would give to try. That's why I'm gazing out of
portholes and I, I'm wondering why!! 

Verse:

We don't need nobody else...
We don't need nobody else...   Just you and me! 
We don't need nobody else...
We don't need nobody else...   Just you and me! 
We don't need nobody else...
We don't need nobody else...   Just you and me! 
..............................................   Just you and me!
..............................................   Just you and me!

Tabbed by Dirk Geens.
Any corrections or comments: Please send them to
tomcat666@hotmail.com
Tap to rate this tab
# A B C D E F G H I J K L M N O P Q R S T U V W X Y Z