Song name
# A B C D E F G H I J K L M N O P Q R S T U V W X Y Z

Whiskey Myers - Gone Away tab

Im 100% sure on the chords, but the picking in the beginning is not 100%.
Its how I play it, but its pretty close to what the real thing is and sounds good.
Use the picking in the intro, first verse, and first chorus, the second verse, then 
chords the rest of the way.
Standard Tuning, Capo on 2

Intro 2x

e|------------------------|--------|----------------------------------|
B|----1-------1-----3p1---|--3-1-0-|---3-1-0---3-1-0---3-1-0----------|
G|---2-2---0h2-2-------0-0|-------0|---------0-------0-------0--------|
D|--2---2-3------3-2----2-|--------|----------------------------------|
A|-0-----3--------3-------|-2------|--2-------------------------------|
E|------------------------|3-------|-3--------------------------------|
                           ending 1  ending 2(use at the end of each verse)

Continue playing intro 4x or play chords

Am        F      C     G
Summer is comin, to an end
Am            F                   C         G
Just like the good times youll be gone once again
Am        F                     C         G
Out of my life and out of this, one-horse town
Am          F               C              G (play ending 2)
Just like a bird you fly so high above the ground

Chorus- intro 4x or chords
          Am F  C                   G
But youre gone away and you left me far behind
      Am F  C                 G
Youre gone away, cant get you outta my mind
      Am F   C        G            Am F
Youre gone, away, and I am here to stay
C   G
Away

Intro 2x or play Solo 1 2x
e|------------------------------------|
B|------------------------------------|
G|------------------------------------|
D|------------------------------------|
A|-0--0h2-3-----3h5/7/5-3-2-3-2-0---0-|
E|-----------3--------------------3---|



Intro 4x or chords

Am      F                   C          G
Fall is so cold without you here by my side
Am              F                       C                G
Im still in the same damn town and hell yeah Im probably high
Am                F              C            G
The clouds are so lonely and the sky it is so blue
Am      F               C                 G (play ending 2)
And until you return my love is still for you

Chorus- play chords

          Am F  C                   G
But youre gone away and you left me far behind
      Am F  C                 G
Youre gone away, cant get you outta my mind
      Am F   C        G            Am F
Youre gone, away, and I am here to stay
C   G
Away

Solo 2 4x
e|----------------------------------|
B|----------------------------------|
G|----------------------------------|
D|----------------------------------|
A|-0--0h2-3--3h5-7--8-5-5h7h8-7p5-3-|
E|----------------------------------|

Chorus- play chords
          Am F  C                   G
But youre gone away and you left me far behind
      Am F  C                 G
Youre gone away, cant get you outta my mind
      Am F   C        G            Am F
Youre gone, away, and I am here to stay
C   G
Away

Solo 2 4x

Solo 3- I have not tabbed that out yet, if anyone knows it let me know and ill put it up!

any corrections email me at hulanic@gmail.com
Tap to rate this tab
# A B C D E F G H I J K L M N O P Q R S T U V W X Y Z