Song name
# A B C D E F G H I J K L M N O P Q R S T U V W X Y Z

Whiskeytown - Faithless Street tab

Whiskeytown-Faithless Street
 
This song was tabbed especially for YOU
by myself Jesse Jeff Martin with the help
of three (3) beautiful and equally naked
women near Salt Lake City.
 
Waltz Time 3/4

This is the best I can do without a guitar in hand
and sans two giant rips off the snootchie bootchie.

The Fiddle Tune:    
e|----------------------0------------------|
b|----------------3---3---3----------------|
g|---0--2--0--2/4---4-------4--2--0--------|
d|----------------------------------(2)----|
a|-----------------------------------------|
E|-----------------------------------------|

     
e|-----------5----------------|
b|---8---5h8---8-7-5----------|
g|----------------------------|
d|----------------------------|
a|----------------------------|
E|----------------------------|

     
e|----------------------------------------|
b|----------------------------------------|
g|---7--7-7-7-7--7-7-7-7-7-7-7-7/4/2-(0)--|
d|---0--9p7-5-5--5-7-5-7-7-9-5-5/2/0------|
a|----------------------------------------|
E|----------------------------------------|


e|----------------------0------------------|
b|----------------3---3---3----------------|
g|---0--2--0--2/4---4-------4--2--0--------|
d|----------------------------------(2)----|
a|-----------------------------------------|
E|-----------------------------------------|


e|-----------5-7-5-------------0------------|
b|---8---5h8-------8--7-5-3---3-3-0---------|
g|------------------------------------------|
d|------------------------------------------|
a|------------------------------------------|
E|------------------------------------------|


e|--------------------------------------3---|
b|--------------------------------------3---|
g|---0--2--0--2-2-4-2-0-----------------0---|
d|----------------------0-----------0h2-----|
a|------------------------2-0---0h2---------|
E|----------------------------3-------------|


Phil's solo is roughly...thus:

e|------------------------------------|
b|-----------------3------------------|
g|-----------0-2/4---4-2-0------------|
d|-------0h2---------------2-(0)-(2)--|
a|----0h2-----------------------------|
E|--3---------------------------------|


bend that e note against the a note
e|------------------0-------5--------------|
b|------------3---3---3-3-5b--5-3----------|
g|--0-2-0-2/4---4-----------------4--------|
d|-----------------------------------------|
a|-----------------------------------------|
E|-----------------------------------------|

I don't know, you're the artist...you decide
e|----0---------------------3-5-3---------|
b|--3---3--0--------3---3/5-------5--3----|
g|------------0-2/4---4-------------------|
d|----------------------------------------|
a|----------------------------------------|
E|----------------------------------------|

get all you can out of that last d note
e|----0------------------------------|
b|--3---3-0-------3----------3-3-----|
g|----------0-2/4-----0--2h4---------|
d|------------------2----------------|
a|-----------------------------------|
E|-----------------------------------|

go easy on yourself.....

"Put your money where your mouth is and I'll spit out a dollar in change"
-Paul Westerberg
Tap to rate this tab
# A B C D E F G H I J K L M N O P Q R S T U V W X Y Z