Whiskeytown - Revenge tab

                             Revenge - Whiskeytown

Tabbed by: Cowpatable

Tuning: Standard

************************************

| /   slide up
| \   slide down
| h   hammer-on
| p   pull-off
| ~   vibrato
| +   harmonic
| x   Mute note
| b   Bend
| pb  Pre-bend
| br  Bend release
| pbr Pre-bend release
| brb Bend release bend

************************************

Guitar 1

  MAIN RIFF
e|--------------------------------------------2--2-2-||
B|------------3-0-0-0--0-0--2-3--3-2--0-0-0-0-3--3-3-||
G|-4-4-4-4-2--2-0-0-0--0-0--2-2--2-2--0-0-0-0-2--2-2-||
D|-4-4-4-4-2--0-0-0-0--0-0--2-4--4-2--0-0-0-0-0--0-0-||
A|-2-2-2-2-0----x-x-x--x-x--0-0--0-0--x-x-x-x--------||
E|--------------0-2-3--2-0------------3-3-2-0--------||

Guitar 2

  INTRO & OUTRO LEAD
e|-------10----10------------------------------------------------
B|-10b12----10-10b12--7-8-7-10-8--7------------------------------
G|----------------------------------9-7-----------7-9b11r9p7---7-
D|--------------------------------------9\--7/(9)------------9---
A|---------------------------------------------------------------
E|---------------------------------------------------------------

  ---------------------------------||
  ---------10-10-10-10--10-9--8-7\-||
  -9-7-9/11---11-11-11--11-10-9-7\-||
  ---------------------------------||
  ---------------------------------||
  ---------------------------------||
___________________________________________________________________
CHORUS - And all the slight variations 
___________________________________________________________________


e|----------------------------2--2--2-2-2-3--3-3--3-3-3-3-|
B|-3--3--3-3-3-2--2-3-2-3-2-3-3--3--3-3-3-3--3-3--3-3-3-3-|
G|-4--4--4-4-4-2--2-2-2-2-2-2-2--2--2-2-2-0--0-0--0-0-0-0-|
D|-4--4--4-4-4-2--2-4-2-4-2-4-0--0--0-0-0-0--0-0--0-0-0-0-|
A|-2--2--2-2-2-0--0-0-0-0-0-0-------------2--2-2--2-2-2-2-|
E|----------------------------------------3--3-3--3-3-3-3-|

e|----------------------------2--2|-----------------------|
B|-3--3--3-3-3-2--2-3-2-3-2-3-3--3|----7----8---7---5---3-|
G|-4--4--4-4-4-2--2-2-2-2-2-2-2--2|-/9--------------------|
D|-4--4--4-4-4-2--2-4-2-4-2-4-0--0|-----------------------|
A|-2--2--2-2-2-0--0-0-0-0-0-0-----|-----------------------|
E|--------------------------------|-----------------------|

(first chorus end part - only played once)
e|----------------------------2--2--2-----3-||
B|-3--3--3-3-3-2--2-3-2-3-2-3-3--3--3-----3-||
G|-4--4--4-4-4-2--2-2-2-2-2-2-2--2--2-----0-||
D|-4--4--4-4-4-2--2-4-2-4-2-4-0--0--0-----0-||
A|-2--2--2-2-2-0--0-0-0-0-0-0-------------2-||
E|------------------------------------0-2-3-||

e|----------------------------------------------------|
B|-3--3--3-3-3-2--2-3-2-3-2-3-3-3-3-3-3-3-3-3-3-------|
G|-4--4--4-4-4-2--2-2-2-2-2-2-0-0-0-0-0-0-0-0-0-------|
D|-4--4--4-4-4-2--2-4-2-4-2-4-0-0-0-0-0-0-0-0-0-----2-|
A|-2--2--2-2-2-0--0-0-0-0-0-0-x-x-x-x-x-x-x-x-x-----2-|
E|----------------------------2h3-2h3-2h3-2h3-2h(3)-0-|

e|----------------------------------------------------------------------|
B|-3--3--3-3-3-2--2-3-2-3-2-3-3-3-3-3-3-3-3-3-3-3-3-3-2-2-2-2-2-2-2-2-2-|
G|-4--4--4-4-4-2--2-2-2-2-2-2-0-0-0-0-0-0-0-0-0-0-0-0-2-2-2-2-2-2-2-2-2-|
D|-4--4--4-4-4-2--2-4-2-4-2-4-0-0-0-0-0-0-0-0-0-0-0-0-2-2-2-2-2-2-2-2-2-|
A|-2--2--2-2-2-0--0-0-0-0-0-0-x-x-x-x-x-x-x-x-x-x-x-x-0-0-0-0-0-0-0-0-0-|
E|----------------------------2h3-2h3-2h3-2h3-2h3-2h3-------------------|
Tap to rate this tab
 
# A B C D E F G H I J K L M N O P Q R S T U V W X Y Z