Song name
# A B C D E F G H I J K L M N O P Q R S T U V W X Y Z

White Antelope - Magic Rings tab

                                  ~~~~~~~~~~~~~~~~~~~~~~~~~~~~~~~~~~~~~~~~
                                                 Magic Rings
                                               White Antelope
                                                
                                  ~~~~~~~~~~~~~~~~~~~~~~~~~~~~~~~~~~~~~~~~
Tabbed by: Connor O.
Tuning: Open D
Youtube link: https://www.youtube.com/watch?v=Hd1t5qAiCA4



This is currently an unreleased song by White Antelope (Robin Pecknold of
Fleet Foxes). Not much info is out about the song, but it's presumed to be a 
part of an upcoming White Antelope release. The songs' metadata mentioned 
"Magic Rings" as a possible title. 

Between the poorer audio quality and giant quantity of notes played, its 
hard to make out the entire song 100%. I'm confident that this tab is at
least ~90% accurate, though. 

The fret fingers aren't lifted in between most of the notes. The same finger 
just slides around to different frets. You can hear this quick sliding at 
multiple points throughout the song. 

It was hard to sift through the solo but I'm sure I got all of the notes correct
for both guitars. It's impossible to tell if there are any bass notes in there,
though. Also, the notes are right, but I'm not sure if the fretboard placement is
completely correct. There's a lot of audible sliding throughout the solo and it's 
hard to tell where all of it is occurring. That's why I included alternative versions.

Comment or message any ideas or corrections. Please rate my tab. If you've got
problems with the tab, I'd encourage you to contact me with those problems so I
can fix the tab or provide advice for playing. Don't just give me a poor rating
and not give me any feedback. The idea is for us all to work together to create
a perfect finished product. This tab just represents the best I can do. It's 
definitely up for peer review.



Key:
where # represents a fret number

#h# - hammer
#p# - pull
/ \ - slides, up and down respectively.



   0:00
    
d |-4---2---0-------------------0-----|
A |-------------4---2---0---2-4-------|
F#|---0---0---------------------------|
D |-----------0---0-------------------|
A |-----0-------0-----0---0-----------|
D |-0-------0-------0---0---0-0-0-----|


   0:04

d |-----------------------------------|  &1 = 4\2
A |-----------------------------------|  &2 = 2/5
F#|---3---3---1---1---5---5---3---3---|
D |-0---4---&---2---&---5-0-5---4---4-|
A |-------0-------0-------------------|
D |---0-------0-------0-------0---0---|


   0:09

d |-4---2---0-------------------0-----|
A |-------------4---2---0---2-4-------|
F#|---0---0---------------------------|
D |-----------0---0-------------------|
A |-----0-------0-----0---0-----------|
D |-0-------0-------0---0---0-0-0-----|


   0:12

d |---5-------5-------5-------5-------|
A |-----5-------5-------5-------5-----|
F#|-------5-------5-------5-------5---|  Guitar 1
D |-0-------7-------7-------7-------7-|
A |-----------------------------------|
D |---------0-0-----0-0-----0-0-----0-|

d |---5-------------------------------|
A |---5-------------------------------|
F#|---5-------------------------------|  Guitar 2 
D |---7-------------------------------|  (Arpeggiated)
A |-----------------------------------|
D |-----------------------------------|
   

   0:17

d |-4-------4-------4-------4---------|
A |---5-------5-------5-------5-------|
F#|-----0-------0-------0-------0-----|  Guitar 1
D |-------0-------0-------0-------0---|
A |-----------------------------------|
D |-0-----0-0-----0-0-----0-0-----0---|

d |---4-------------------------------|
A |---5-------------------------------|
F#|---0-------------------------------|  Guitar 2
D |---0-------------------------------|  (Arpeggiated)
A |-----------------------------------|
D |-----------------------------------|


   0:21

d |-4---2---0-------------------0-----|
A |-------------4---2---0---2-4-------|
F#|---0---0---------------------------|  Guitar 1
D |-----------0---0-------------------|
A |-----0-------0-----0---0-----------|
D |-0-------0-------0---0---0-0-0-----|

d |-----------------------------------|
A |-12--10--9---7-------------7-9-----|
F#|-----------------8---7---8---------|  Guitar 2
D |-----------------------------------|
A |-----------------------------------|
D |-----------------------------------|


   0:25

d |-----------------------------------|  &1 = 4\2
A |-----------------------------------|  &2 = 2/5
F#|---3---3---1---1---5---5---3---3---|  Guitar 1
D |-0---4---&---2---&---5-0-5---4---4-|
A |-------0-------0-------------------|
D |---0-------0-------0-------0---0---|

d |-----------------------------------|
A |-----------7---7-----------9---9---|
F#|-------------7---------------8---8-|  Guitar 2
D |-----------------------------------|
A |-----------------------------------|
D |-----------------------------------|


   0:29

d |-4---2---0-------------------0-----|
A |-------------4---2---0---2-4-------|
F#|---0---0---------------------------|  Guitar 1
D |-----------0---0-------------------|
A |-----0-------0-----0---0-----------|
D |-0-------0-------0---0---0-0-0-----|

d |-----------------------------------|
A |-12--10--9---7-------------7-9-----|
F#|-----------------8---7---8---------|  Guitar 2
D |-----------------------------------|
A |-----------------------------------|
D |-----------------------------------|


   0:33

d |---5-------5-------5-------5-------|
A |-----5-------5-------5-------5-----|
F#|-------5-------5-------5-------5---|  Guitar 1
D |-0-------7-------7-------7-------7-|
A |-----------------------------------|
D |---------0-0-----0-0-----0-0-----0-|

d |-----------7-------9-------9p7-----|
A |---9--------------------------10---|
F#|-----------------------------------|  Guitar 2
D |-----------------------------------|
A |-----------------------------------|
D |-----------------------------------|


   0:37

d |-4-------4-------4-------4---------|
A |---5-------5-------5-------5-------|
F#|-----0-------0-------0-------0-----|  Guitar 1
D |-------0-------0-------0-------0---|
A |-----------------------------------|
D |-0-----0-0-----0-0-----0-0-----0---|

d |---7-------------------------------|
A |-----------------------------------|
F#|--8--------------------------------|  Guitar 2
D |-----------------------------------|
A |-----------------------------------|
D |-----------------------------------|



Solo (Play Through Twice):


   0:42                      (You can hear this sliding in the recording)
                                         ******* 
d |----------------------------------------------------|             
A |-------9-5-7-9---9-10-7-9-5-7-----------------------|             
F#|---5-7---------0--------------7---5-7---5-\-3-------|  Guitar 1 
D |-7------------------------------------7-\-5---2-3-4-|  
A |----------------------------------------------------|
D |----------------------------------------------------|

d |-------4-0-2-4---4-5-2-4-0-2------------------------|
A |-0-2-4-----------------------4---2-4-0-2------------|
F#|---------------0---------------0---------1-3--------|  Guitar 1 Alternative
D |---------------------------------------------2-3-4--|
A |----------------------------------------------------|
D |----------------------------------------------------|




d |---------------------------------------------------|
A |-------5-----5---5-7---5---------------------------|
F#|---------5-7---------7---5-7-----------------------|  Guitar 2 
D |-4-5-7-----------------------7---5-7-4-5-2-4-------|
A |---------------------------------------------2-4-5-|
D |---------------------------------------------------|

d |-------0-----0---0-2---0---------------------------|
A |---------2-4---------4---2-4-0---------------------|
F#|-0-1-3---------------------------1-3-0-1-----------|  Guitar 2 Alternative
D |-----------------------------------------2-4-----0-|
A |---------------------------------------------2-4---|
D |---------------------------------------------------|




d |-------0---------------------------|
A |-----0-----0-----------------------|
F#|---0-----------0-------------------|  Guitar 2
D |-0-----------------0---------------|
A |-----------------------------------|
D |-----------------------------------|



Outro:


   0:58

d |-4---2---0-------------------0-----|
A |-------------4---2---0---2-4-------|
F#|---0---0---------------------------|  Guitar 1
D |-----------0---0-------------------|
A |-----0-------0-----0---0-----------|
D |-0-------0-------0---0---0-0-0-----|

d |-----------------------------------|
A |-12--10--9---7-------------7-9-----|
F#|-----------------8---7---8---------|  Guitar 2
D |-----------------------------------|
A |-----------------------------------|
D |-----------------------------------|


   1:02

d |-----------------------------------|  &1 = 4\2
A |-----------------------------------|  &2 = 2/5
F#|---3---3---1---1---5---5---3---3---|  Guitar 1
D |-0---4---&---2---&---5-0-5---4---4-|
A |-------0-------0-------------------|
D |---0-------0-------0-------0---0---|

d |-----------------------------------|
A |-----------7---7-----------9---9---|
F#|-------------7---------------8---8-|  Guitar 2
D |-----------------------------------|
A |-----------------------------------|
D |-----------------------------------|


   1:06

d |-4---2---0-------------------0-----|
A |-------------4---2---0---2-4-------|
F#|---0---0---------------------------|  Guitar 1
D |-----------0---0-------------------|
A |-----0-------0-----0---0-----------|
D |-0-------0-------0---0---0-0-0-----|

d |-----------------------------------|
A |-12--10--9---7-------------7-9-----|
F#|-----------------8---7---8---------|  Guitar 2
D |-----------------------------------|
A |-----------------------------------|
D |-----------------------------------|


    1:10

d |---5-------5-----------5-------5---|
A |-----5-------5-------5---5---5-----|
F#|-------5-------5---5-------5-------|  Guitar 1
D |-0-------7-------7-----------------|
A |-----------------------------------|
D |---------0-0-----0-0-----0-0-------|

d |-----------------------------------|
A |---10------12-------14-----14p12---|
F#|-----------------------------------|  Guitar 2
D |-----------------------------------|
A |-----------------------------------|
D |-----------------------------------|


   1:15

d |-4-------------------------4-------|
A |-----5-------------------5---------|
F#|---------0-------------0-----------|  Guitar 1
D |-------------0-------0-------------|
A |-------------------0---------------|
D |-------------0---0-----------------|

d |-----------------------------------|
A |-9---------------------------------|
F#|-----------------------------------|  Guitar 2
D |-----------------------------------|
A |-----------------------------------|
D |-----------------------------------|
Tap to rate this tab
# A B C D E F G H I J K L M N O P Q R S T U V W X Y Z