Song name
# A B C D E F G H I J K L M N O P Q R S T U V W X Y Z

White Ash - Crowds tab

This is my guitar tab for White Ash - Crowds. Its a tab for the full song not for the
short version (Gatchaman Crowds Opening).
I have the link for the full song on youtube but the video posted was removed because of
copyright (somehow he managed to get the full video even before the official release?)
If you want the song pm me giving your email so i send it to you.

White Ash Official Website: http://whiteash.jp/

I got this by ear since there are not much material to check at this point yet. Only
used waifuat cover on youtube (link in the bottom) to get a specific part as it will be
mentioned later. It have some mistakes in the part at verse 2 since it was hard for a 
begginer like me to catch it fully correctly, but i think its not too off either. The rest
shall be spot on. If not leave a comment so i can correct it, since it could be jsut a 
mistake writing the tab or really a mistake on playing it ;).


Intro

E|-------------------------------------------|
B|-------------------------------------------|
G|-6--6--6-6-6--6--6--6--6-6-6--6--6-6-7-----|
D|-6--6--6-6-6--6--6--6--6-6-6--6--6-6-7-----|   (x2)
A|-4--4--4-4-4--4--4--4--4-4-4--4--4-4-5-----|
E|-------------------------------------------|

E|-------------------------------------------------------------------------------------|
B|-------------------------------------------------------------------------------------|
G|-6-6-9-9-------7-7-9--6-6-9-9-------4-4-7--6-6-9-9-------7-7-9--6-6-9-9---4---4-5-6--|
D|-6-6-9-9-7-6-6-7-7-9--6-6-9-9-7-6-6-4-4-7--6-6-9-9-7-6-6-7-7-9--6-6-9-9-7-4-4-4-5-6--|
A|-4-4-7-7-7-6-6-5-5-7--4-4-7-7-7-6-6-2-2-5--4-4-7-7-7-6-6-5-5-7--4-4-7-7-7-2-4-2-3-4--|
E|---------5-4-4----------------5-4-4----------------5-4-4----------------5---2--------|


Verse 1 (If you have a similar efect playing just the B string might sound better)

E|------------------------------|
B|-------9----9/12-11-9---------|
G|-------9----9/12-11-9---------|
D|------------------------------|
A|------------------------------|
E|------------------------------|

Pre-Chorus (similar to the end of the intro exceptthe last chord is already played in 
the chorus)

E|----------|
B|----------|
G|--4---4-4-|
D|--4-4-4-4-|
A|--2-4-2-3-|
E|----2-----|

Chorus (Listen to the song to catch the rythm pattern)

E|---------------------------------------------|
B|---------------------------------------------|
G|--6-6-6-6------------------------------------|                (3x)
D|--6-6-6-6-7-7-7-7-9-9-9-9-6-6-6-6------------|
A|--4-4-4-4-7-7-7-7-9-9-9-9-6-6-6-6------------|
E|----------5-5-5-5-7-7-7-7-4-4-4-4------------|

(Played only in the last time)

E|-------------------------|
B|-------------------------|
G|-----------4---4-5-6-----|
D|---7-7-7-7-4-4-4-5-6-----|
A|---7-7-7-7-2-4-2-3-4-----|
E|---5-5-5-5---2-----------|

Verse 2 (Might have catch the basic still certainly has mistakes)

E|--------------------------------------------------------------------|
B|--9-7------------------------------9-7---------------------5-7-8-9--|
G|------9-6-9-6-9-6-9-6-9-6-9-6-9-6------9-6-9-6-9-6-9-6-9-6----------|
D|--------------------------------------------------------------------|
A|--------------------------------------------------------------------|
E|--------------------------------------------------------------------|


E|------------------------------------------------------|
B|--9-7-------------------------5-7--9-7-----7-5-6-7----|
G|------9-6-9-6-9-6-9-6-9-6-4-6----------9-6------------|
D|------------------------------------------------------|
A|------------------------------------------------------|
E|------------------------------------------------------|

Pre-Chorus

E|----------|
B|----------|
G|--4---4-5-|
D|--4-4-4-5-|
A|--2-4-2-3-|
E|----2-----|

Chorus

E|---------------------------------------------|
B|---------------------------------------------|
G|--6-6-6-6------------------------------------|                (3x)
D|--6-6-6-6-7-7-7-7-9-9-9-9-6-6-6-6------------|
A|--4-4-4-4-7-7-7-7-9-9-9-9-6-6-6-6------------|
E|----------5-5-5-5-7-7-7-7-4-4-4-4------------|

(Again played only in the last time)

E|----------------------------------------------------|
B|----------------------------------------------------|
G|-----------4-4-4-4-6-6-6-6-6-6-6-6------------------|
D|---7-7-7-7-4-4-4-4-6-6-6-6-6-6-6-6-6-6-6-6-6-6-6-6--|
A|---7-7-7-7-2-2-2-2-4-4-4-4-4-4-4-4-6-6-6-6-6-6-6-6--|
E|---5-5-5-5-------------------------4-4-4-4-4-4-4-4--|


Two Guitar in this part

Guitar 1

E|--------------------------------------------|
B|--------------------------------------------|
G|-6-6-9-9-------7-7-9--6-6-9-9-------4-4-7---|
D|-6-6-9-9-7-6-6-7-7-9--6-6-9-9-7-6-6-4-4-7---| (3x)
A|-4-4-7-7-7-6-6-5-5-7--4-4-7-7-7-6-6-2-2-5---|
E|---------5-4-4----------------5-4-4---------|

Guitar 2 (Enter after Guitar 1 played its part once, basicaly the first part of the intro)


E|-------------------------------------------|
B|-------------------------------------------|
G|-6--6--6-6-6--6--6--6--6-6-6--6--6-6-7-----|
D|-6--6--6-6-6--6--6--6--6-6-6--6--6-6-7-----|   (x2)
A|-4--4--4-4-4--4--4--4--4-4-4--4--4-4-5-----|
E|-------------------------------------------|

(Both guitar let fade out the last chord)

Pre-Chorus

E|----------|
B|----------|
G|--4---4-5-|
D|--4-4-4-5-|
A|--2-4-2-3-|
E|----2-----|

Chorus

E|---------------------------------------------|
B|---------------------------------------------|
G|--6-6-6-6------------------------------------|                (3x)
D|--6-6-6-6-7-7-7-7-9-9-9-9-6-6-6-6------------|
A|--4-4-4-4-7-7-7-7-9-9-9-9-6-6-6-6------------|
E|----------5-5-5-5-7-7-7-7-4-4-4-4------------|

(Again played only in the last time)

E|--------------------------------------------------------|
B|--------------------------------------------------------|
G|-----------4-4-4-4-6-6-6-6-6-6-6-6---------4---4-5-6----|
D|---7-7-7-7-4-4-4-4-6-6-6-6-6-6-6-6-7-7-7-7-4-4-4-5-6----|
A|---7-7-7-7-2-2-2-2-4-4-4-4-4-4-4-4-7-7-7-7-2-4-2-3-4----|
E|---5-5-5-5-------------------------5-5-5-5---2----------|

Outro (Two Guitar in this part again)

Guitar 1

E|---------------------------------------------------------------------------------------|
B|---------------------------------------------------------------------------------------|
G|-6-6-9-9-------7-7-9--6-6-9-9-------4-4-7----6-6-9-9-------7-7-9--6-6-9-9---4---4-5-6--|
D|-6-6-9-9-7-6-6-7-7-9--6-6-9-9-7-6-6-4-4-7----6-6-9-9-7-6-6-7-7-9--6-6-9-9-7-4-4-4-5-6--|
A|-4-4-7-7-7-6-6-5-5-7--4-4-7-7-7-6-6-2-2-5----4-4-7-7-7-6-6-5-5-7--4-4-7-7-7-2-4-2-3-4--|
E|---------5-4-4----------------5-4-4------------------5-4-4----------------5---2--------|

Guitar 2(Enter similar as before)

E|------------------------------------------------|
B|------------------------------------------------|
G|-6--6--6-6-6--6--6--6--6-6-6-4---4-5-6----------|
D|-6--6--6-6-6--6--6--6--6-6-6-4-4-4-5-6----------|
A|-4--4--4-4-4--4--4--4--4-4-4-2-4-2-3-4----------|
E|-------------------------------2----------------|


NOTE - This next part is played during the verse one rigt before the part played by the
guitar. Its not played in the original song but i add it to the song when i play, since
it makes the song feel more complete in my opinion. I saw it on waifuat Gatchaman Crowds 
OP cover on Youtube (link - http://www.youtube.com/watch?v=W706HZxDIWs), even thought i
play it slightly different, leave here my apreciation for his work, and if you like it 
leave a comment on his video. Also is recommended to watch his video to get the timing of this.

E|------------------------------------------------------|
B|--/9--------------------------------------------------|
G|--/9-------13----13-12----12-11----11-10----10--------|
D|--------------11-------11-------11-------11-----------|
A|------------------------------------------------------|
E|------------------------------------------------------|
Tap to rate this tab
 
# A B C D E F G H I J K L M N O P Q R S T U V W X Y Z