Song name
# A B C D E F G H I J K L M N O P Q R S T U V W X Y Z

White Denim - Lets Talk About It tab

The whole song is just these three riffs as far as I can tell so if you listen to the 
you’ll be able to work it out.

MAIN RIFF
E|-X-555--X-555--X-55555-6--111-XXXXXXXX-1-33333----------|
B|-X-888--X-666--X-55555-6--111-XXXXXXXX-1-33333----------|
G|-X-555--X-777--X-66666-7--222-XXXXXXXX-2-44444----------|
D|-X-777--X-777--X-77777-8--333-XXXXXXXX-3-55555----------|
A|-X-555--X-555--X-77777-8--333-XXXXXXXX-3-55555----------|
D|-X------X------X-55555-6--111-XXXXXXXX-1-33333----------|


E|-33333--------1-1---------------------------------------|
B|-33333--------2-1---------------------------------------|
G|-44444--------3-2---------------------------------------|
D|-55555--------3-3---------------------------------------|
A|-55555--------1-3---------------------------------------|
D|-33333----------1---------------------------------------|


E|---555--555---------------------------------------------|
B|---888--666---------------------------------------------|
G|---555--777---------------------------------------------|
D|---777--777---------------------------------------------|
A|---555--555---------------------------------------------|
D|--------------------------------------------------------|


the bands website is www.whitedenimmusic.com
Tap to rate this tab
 
# A B C D E F G H I J K L M N O P Q R S T U V W X Y Z