Song name
# A B C D E F G H I J K L M N O P Q R S T U V W X Y Z

White Denim - Street Joy tab

ARTIST: White Denim
ALBUM: D
SONG: Street Joy
YEAR: 2011
TABBED BY: and frosting

Tuning: Standard (E A D B G e)
Chords used:
Bm: 		xx9777
A:  		xx7655
Gmaj7:	xx5432
F#m:		xx4222
G:		xx5433
D:		xx0232
A2: 		x02220
G2:		320003
Em: 		022000

Sequence of parts:
A
B
C
A
B
D

Lyrics below.


Part A: Intro/Verse
   Bm	    A 	Gmaj7		   F#m   G         F#m  G	
e|-----7---------5----2---------2p0-------2------3-------2-------------------|
B|----7-7------5-5----3------------3------2--3---3-------2--3--------------O-|
G|---7---7----6--6----4-------------4-----2--4---4-------2--4----------------|
D|-/9-----9--7------------5---5---------4----5---5-----4----5----------------|
A|-------------------------------------------------------------------------O-|
E|---------------------------------------------------------------------------|

e|-----7---------5----2---------2p0-------2------3-------2-------------------|
B|----7-7------5-5----3------------3------2--3---3-------2--3----------------|
G|---7---7----6--6----4-------------4-----2--4---4-------2--4----------------|
D|-/9-----9--7------------5---5---------4----5---5-----4----5----------------|
A|---------------------------------------------------------------------------|
E|---------------------------------------------------------------------------|
       I don't mind the sound         of a voice      of your voice....


Part B:
       Gtr 1	
e|---2--2--------------------3--3--------------------------------------------|
B|---3--3-----2-2----0---0---0--0--------------------------------------------|
G|---2--2-----2-2----0---0---0--0--------------------------------------------|
D|---0--0-(0)-2-2----0---0---0--0--------------------------------------------|
A|------------0-0-0--2---2---2--2--------------------------------------------|
E|-------------------3---3---3--3--------------------------------------------|
 |
 |      Gtr 2
e|---2--2--------------------------------------------------------------------|
B|---3--3-----2-2---0---0----------------------------------------------------|
G|---2--2-----2-2---0---0----------------------------------------------------|
D|---0--0-(0)-2-2---0---0----------2-----------------------------------------|
A|------------0-0---2---2------2-5---5-2-5-----------------------------------|
E|------------------3---3----------------------------------------------------|
  

Part C: Solo
   Em			   A2             Em						A2
e|-------------------------------0--v0---------------------------------------|
B|----------------------------------v0-------------------------2-------------|
G|-/9------7-9-7-6-7-6-4----2/4-----v0-------------------------2-------------|
D|-----9-9--------------------------v4-----0-0--2-4------------2-------------|
A|----------------------------------------------------3p2p0----0-------------|
E|---------------------------------------------------------------------------|
	A2	    *  Em					 A2
e|--------------7------------------------------------------------------------|
B|--2-3-5-7-----7-----7-------7----------------------------------------------|
G|--2-----------7-------9-7-9---7-9------------------------------------------|
D|--2---------------9----------------9--7\4----------------------------------|
A|--0------------------------------------------------------------------------|
E|---------------------------------------------------------------------------|
        Em  				 A2           Em	    		F#m  G   F#m    G
e|--5-5-5--3-3--2-2--0-0--------------------------------2---------^2---------|
B|--3-3-3--2-2--2-2--2-2--3-3--2-2--0-0-----------------2---3-----^2---3-----|
G|------------------------4-4--2-2--0-0--2-2------------2---4-----^2---4-----|
D|---------------------------------------4-4----------4-----5---4------5-----|
A|---------------------------------------------------------------------------|
E|---------------------------------------------------------------------------|

Part D: Outro
e|-----2-------------2-------------------------------------------------------|
B|-----2---3---------2---3---------------------------------------------------|
G|-----2---4---------2---4---------------------------------------------------|
D|--4------5-------4-----5---------------------------------------------------|
A|---------------------------------------------------------------------------|
E|---------------------------------------------------------------------------|
   Street  joy,    you adore

Part 2a: Verse variation...stick it in there whenever you want a different bass line
e|-----7-------------9---------2-----2p0------------2----------2-------------|
B|----7-7---------10--10-------3---------3----------2---3------2---3---------|
G|---7---7------9--------9-----4-----------4--------2---4------2---4---------|
D|--9-----9--11--------------5-----5--------------4-----5----4-----5---------|
A|---------------------------------------------------------------------------|
E|---------------------------------------------------------------------------|

* during solo = switch your pickup selector to bridge only, as before it should 
have been bridge or middle.

Lyrics:
I don't mind the sound
Of a voice, of your voice
When you use it like your gun
So much fun, fire your gun

Casual as you are, it gets hard to say
I won't say, 'less you're going away

He strings himself on up to your front door
You've been a wall of ideas about the rich and the poor
With his car horn talk
Make your focus break
When you're left to yourself
You're going anyway

I don't differentiate
We from they, we from they
Feel my appetite
Wild light, sleepless night
Lean my head against an angry moon
Always room, angry moon

In and out of a metal chair
In an unloved apartment where
I can build myself up
Before I make the scare
String myself up onto your front door

Street joy
You adore

************************************
| v   downward stroke (higher notes {e string} first)
| ^   upward stroke (lower {bass} notes first)
| /   slide up
| \   slide down
| h   hammer-on
| p   pull-off
| ~   vibrato
| +   harmonic
| x   Mute note
| b   Bend
************************************
Tap to rate this tab
 
# A B C D E F G H I J K L M N O P Q R S T U V W X Y Z