Song name
# A B C D E F G H I J K L M N O P Q R S T U V W X Y Z

White Denim - Its Him tab

-------------------------------------------------------------------------------
                        White Denim - It's Him       
-------------------------------------------------------------------------------
Tabbed by: Tim van Kester

Tuning: Standard, no capo.

-------------------------------------------------

Intro = D --> C

That little riff is:
  simple:        Or, if you want chords and riff integrated:
e|---------------2--2-2--2-x-------------------------------------------------|
B|---------------3--3-3--3-x--1-----1h3--------------------------------------|
G|---------------2--2-2--2-x--0-0h2------------------------------------------|
D|---------------0--0-0--0-x--2----------------------------------------------|
A|-----3-5--------------------3----------------------------------------------|
E|-3-5-----------------------------------------------------------------------|

Verse: Same, but guitar 1 stays at Dm octave: 
e|---|
B|-3-|
G|-7-|
D|-x-|
A|-5-|
E|---|
                                             
'As you see...' 
e|---------------------------------------------------------------------------|
B|-10---7----10---5----1----3--1--3--10---7----10---5----1----3--1--3--1--3--|
G|-x----x----x----x----2----2--0--2--x----x----x----x----2----2--0--2--0--2--|
D|-10---7----10---5----3----0--2--0--10---7----10---5----3----0--2--0--2--0--|
A|-8----5----8----3----3-------3-----8----5----8----3----3-------3-----3-----|
E|---------------------1---------------------------------1-------------------|

e|--------|
B|-1--3---|
G|-0--2---|
D|-2--0---|
A|-3------|
E|--------|

Chords in the next part:
e|--10---8----5---3---|
B|--10---8----5---3---|
G|--11---9----5---4---|
D|--12---10---7---5---|
A|--12---10---7---5---|
E|--10---8----5---3---|

And lead guitar (repeated several times):
e|---------------------------------------------------------------------------|
B|---7----7---7-8-7---------------13-----13---15-13p12-------12--------------|
G|-7----7------------9--9~----/14-----14----------------14-------14--12------|
D|---------------------------------------------------------------------------|
A|---------------------------------------------------------------------------|
E|---------------------------------------------------------------------------|

Again:
e|---------------------------------|----|------------------------------------|
B|-10---7----10---5----1---3--1--3-|----|-10---7----10---5----1---3--1--3--1-|
G|-x----x----x----x----2---2--0--2-|-x2-|-x----x----x----x----2---2--0--2--0-|
D|-10---7----10---5----3---0--2--0-|----|-10---7----10---5----3---0--2--0--2-|
A|-8----5----8----3----3------3----|----|-8----5----8----3----3------3-----3-|
E|---------------------1-----------|----|---------------------1--------------|

e|----------------------|
B|-3--1--3--1--3--1--3--|
G|-2--0--2--0--2--0--2--|
D|-0--2--0--2--0--2--0--|
A|----3-----3-----3-----|
E|----------------------|

Chords in the next part are again:
e|--10---8----5---3---|
B|--10---8----5---3---|
G|--11---9----5---4---|
D|--12---10---7---5---|
A|--12---10---7---5---|
E|--10---8----5---3---|

However, lead guitar changes. From the second time the chords are played:
e|---------------------------------------------------------------------------|
B|---------------------------------------------------------------------------|
G|---------------------------------------------------------------------------|
D|---------7-7-7---------5--5------------5-5-5-----------5-5-5---------------|
A|-------9-------9-7-5h7-------7-5---5h7-------7-5---5h7-------7-5-----------|
E|-10-10---------------------------------------------------------------------|


Instrumental. Guitar 1 also played the licks, lead guitar only plays 
the D-chords:
e|-2--2------------------------------2--2------------------------------------|
B|-3--3------------------------------3--3---------8\7-5----------------------|
G|-2--2-------5----------------------2--2-------5-------7/9\7-5--------------|
D|-0--0---5/7---5-5-5p3---5-5-5p3----0--0---5/7------------------------------|
A|----------------------5---------5------------------------------------------|
E|---------------------------------------------------------------------------|

e|-2--2------------------------------2--2------------------------------------|
B|-3--3------------------------------3--3---------8/10\8-7h8p7---------------|
G|-2--2-------5----------------------2--2-------5--------------7-------------|
D|-0--0---5/7---5-5-5p3---5-5-5p3----0--0---5/7------------------------------|
A|----------------------5---------5------------------------------------------|
E|---------------------------------------------------------------------------|

e|-2--2--------2--2--3--|----|
B|-3--3--1-----3--3--3--|----|
G|-2--2--0-----2--2--0--|-x4-|
D|-0--0--2-----0--0--0--|----|
A|-------3-----------2--|----|
E|-------------------3--|----|
Not so sure about the G-chord here, though.

Return to intro with the riff integrated. Other guitar plays some solo which
gets played backwards. Sounds like the G-major scale but it's probably called
differently.


************************************

| /   slide up
| \   slide down
| h   hammer-on
| p   pull-off
| ~   vibrato
| +   harmonic
| x   Mute note
| b   Bend
| pb  Pre-bend
| br  Bend release
| pbr Pre-bend release
| brb Bend release bend

************************************
Tap to rate this tab
# A B C D E F G H I J K L M N O P Q R S T U V W X Y Z