Song name
# A B C D E F G H I J K L M N O P Q R S T U V W X Y Z

White Denim - Corsicana Lemonade tab

-------------------------------------------------------------------------------
                      White Denim - Corsicana Lemonade   
-------------------------------------------------------------------------------
Tabbed by: Tim van Kester

Tuning: Standard

-----------

This tab is mainly the lead guitarist's part. That was kinda tricky and the
tab is rather difficult to read I'm afraid. There is some room for improv,
especially around the D-chord in the verse and chorus.
Most parts are a bit (palm) muted.

Feel free to comment!

----------
Intro
----------
e|------------------------|
B|------------------------|
G|-5---4/5---0---2---0h2--|
D|-5---4/5---0---2---2----|
A|-0-0-----0---0---0------|
E|------------------------|

----------
Verse
----------
e|-----------------+-----------------+--------------+------------------------|
B|-------------------------------------3--3-3---3--3-------------------------|
G|--5--2-2----5---2--5--2-2----5---2---2--0-2---5--5--5--2-2----5---2--------|
D|--2--2-4p2--2---2--2--2-4p2--2---2--0---0-0--0--0---2--2-4p2--2---2--------|
A|-0---0-0---0--0---0---0-0---0--0-------------------0---0-0---0--0----------|
E|-----------------+-----------------+--------------+------------------------|

e|-----------------+-----------------+-------------------+-------------------|
B|------------------------------------1-------3------------------------------|
G|--5--2-2----5---2--5--2-2----5---2--0-------0-----------5--2-2----5---2----|
D|--2--2-4p2--2---2--2--2-4p2--2---2--2-------0---0h1p0---2--2-4p2--2---2----|
A|-0---0-0---0--0---0---0-0---0--0----3--0-1-2----------3----0-0---0--0------|
E|-----------------+-----------------+-------------------+-------------------|

e|---------------------+----------------------------|
B|-1-------3----------------------------------------|
G|-0-------0------------------2---------------------|
D|-2-------0-----1p0----0h3h4---------------2p0-----|
A|-3--0-1-2---------------------3-2-0-----------3p0-|
E|-------------3-----3-+--------------0-2/3---------|

----------
Chorus
----------
e|-----------5/7-x-5---------------|
B|-3---x-3---5/7-x-5--3-x-3---3--3-|
G|-2---x-2---5/7-x-5--2-x-2---5--4-|
D|-0---x-0------------0-x-0--------|
A|---------------------------------|
E|---------------------------------|

e|----------------------+-----------------|
B|----------------------------------------|
G|--5----5p0----2p0---2---5----5p0----2p0-|
D|--5----5p0----2p0---2---5----5p0----2p0-|
A|--0--0------0-----0----0---0------0-----|
E|----------------------+-----------------|

Repeat these three times, then:

e|-2------------------|
B|-3---1~----3---1~---|
G|-2---0~----0---0~---|
D|-0---2~----0---2~---|
A|-----3~----2---3~---|
E|--------------------|

Repeat intro, verse and chorus. In stead of the four chords in the last bar
tabbed above, play a D-chord twice and end with

e|---------------|
B|---------------|
G|---------------|
D|---------------|
A|-0-2-3---3p2p0-|
E|---------------|

----------
Solo
----------
This is actually a duo-solo, I think. Arranged for solo:

          (V=: Here, other guitar alternates between e13 and B15)
e|---------------------------------------------------------------------------|
B|-13b15~---15r13-------------13-----------5h6p5-----------------------------|
G|-------------------12b14~-------14r12----------7---5h7p5-4-----------------|
D|-----------------------------------------------------------7~--------------|
A|---------------------------------------------------------------------------|
E|------------------------------------------------------------------5~-------|

e|----------------------------------------------------------15---------------|
B|----------------------------------------8--10--13--15b17------17r15~-------|
G|-----------------4-5---7-9-------9-----------------------------------------|
D|------------5-7---------------7-----10-------------------------------------|
A|------5/7------------------------------------------------------------------|
E|-8-7-----------------------------------------------------------------------|

e|-------15--------------------------------------------------------|
B|-15b17----15b17-15---13--15b17---------------13------------------|
G|-------------------------------12h14---12h14-----12h14-12---14---|
D|-----------------------------------------------------------------|
A|-----------------------------------------------------------------|
E|-----------------------------------------------------------------|


e|---------------------------------------------------------------------------|
B|---------------------------------------------------------------------------|
G|-------12--------------------------------------------------------12-14--12-|
D|-12h14----14p12\10---------------------------------12-14--12-14------------|
A|-------------------12----------------12-15--12-15--------------------------|
E|-----------------------12-15--12-15----------------------------------------|

e|---------------------------------|
B|------------13--15--15b17--15~---|
G|-14---12-14----------------------|
D|---------------------------------|
A|---------------------------------|
E|---------------------------------|

----------
Chorus 2
----------

Lead guitar during this chorus is a bit different.
e|-5-------10/12--10---5--x-5----8--7--|
B|-6-------10/12--10---6--x-6----8--8--|
G|-5-------10/12--10---5--x-5----9--7--|
D|-------------------------------------|
A|-------------------------------------|
E|-------------------------------------|

e|----------------------+-----------------|
B|----------------------------------------|
G|--5----5p0----2p0---2---5----5p0----2p0-|
D|--5----5p0----2p0---2---5----5p0----2p0-|
A|--0--0------0-----0----0---0------0-----|
E|----------------------+-----------------|
Repeat these three times

e|-2------------------|
B|-3---1~----3---1~---|
G|-2---0~----0---0~---|
D|-0---2~----0---2~---|
A|-----3~----2---3~---|
E|--------------------|

e|-------------------------------|
B|-----------------------------3-|
G|-------2---------------------2-|
D|-0h3h4---------------2p0-----0-|
A|---------3-2-0-----------3p0---|
E|---------------0-2/3-----------|





************************************

| /   slide up
| \   slide down
| h   hammer-on
| p   pull-off
| ~   vibrato
| +   harmonic
| x   Mute note
| b   Bend
| pb  Pre-bend
| br  Bend release
| pbr Pre-bend release
| brb Bend release bend

************************************
Tap to rate this tab
 
# A B C D E F G H I J K L M N O P Q R S T U V W X Y Z