Song name
# A B C D E F G H I J K L M N O P Q R S T U V W X Y Z

White Denim - At Night In Dreams tab

White Denim
At Night In Dreams, from Corsicana Lemonade, 2013

tabbed by Almir Nametak
mokra@starmo.co.uk
Jan 2014

main riff only

E-----------------------------------------------------|
B-----------------------------------------------------|
G-----------------------------------------------------|
D-6-4------4-6--6-4-----------------------------------|
A----6-4-2---------6-4-2-----2--6-6-6-6-6-6-6---------|
E---------4-------------4-2-4-4-4-4-4-4-4-4-4---------|


E-----------------------------------------------------|
B-----------------------------------------------------|
G-----------------------------------------------------|
D-6-4------4-6--6-4-----------------------------------|
A----6-4-2---------6-4-2-----2--6-6-6-6-6-6-6---------|
E---------4-------------4-2-4-4-4-4-4-4-4-4-4---------|


E------------------------------------------------------|
B------------------------------------------------------|
G------------------------------------------------------|
D-6-4------4-6--6-4------------------------------------|
A----6-4-2---------6-4-2-----2-----454-4-------4-2-456-|
E---------4-------------4-2-4-4-4-7---7-7-4-2-1-4------|


E-----------------------------------------------------|
B-9-7------7-9--9-7-----------------------------------|
G----8-6-----------8-6--------------------------------|
D-------9-6-----------9-6-6-9-6-6-6-6-6-6-6-6---------|
A------------------------9----------------------------|
E-----------------------------------------------------|


E-----------------------------------------------------|
B-9-7------7-9--9-7-----------------------------------|
G----8-6-----------8-6--------------------------------|
D-------9-6-----------9-6-6-9-6-6-6-6-6-6-6-6---------|
A------------------------9----------------------------|
E-----------------------------------------------------|


E------------------------------------------------------|
B-9-7------7-9--9-7------------------------------------|
G----8-6-----------8-6-------------676-6-------6---678-|
D-------9-6-----------9-6-6-9-6-6-9---9-9-6-----6-9----|
A------------------------9-----------------9-78--------|
E------------------------------------------------------|


Ab, E
Tap to rate this tab
 
# A B C D E F G H I J K L M N O P Q R S T U V W X Y Z