Song name
# A B C D E F G H I J K L M N O P Q R S T U V W X Y Z

White Lies - A Place To Hide tab

Intro
e|10-12-------10-12---|
B|------10-12-------8-|
G|--------------------|
D|--------------------|
A|--------------------|
E|--------------------|

Guitar Sits Out First Bit Of Verse, then plays this (palm-muted)
e|-------------------------------------------------------------------------|
B|-------------------------------------------------------------------------|
G|-------------------------------------------------------------------------|
D|-------------------------------------------------------------------------|
A|55555555--------2222555--------------------------------------------------|
E|--------55555555-------33333333------------------------------------------|

Pre-Chorus
e|-------------------------------------------------------------------------|
B|-------------------------------------------------------------------------|
G|11--1111-----12---12-12------11--1111-----14---14-14---------------------|
D|11--1111-----12---12-12------11--1111-----14---14-14---------------------|
A|9---9-9------10---10-10------9---9-9------12---12-12---------------------|
E|-------------------------------------------------------------------------|

Chorus
e|------------------------------|
B|------------------------------|
G|9999999999999-----------------|
D|999999999999999999999977777777|
A|777777777777799999999977777777|
E|-------------7777777775555555-|

Second Verse Part 1( Part 2 is same as Verse 1 bit)
e|---------------------------------------|
B|---------------------------------------|
G|---------------------------------------|
D|---------------------------------------|
A|5~--------------2~-----5~--------------|
E|----------------------------3~---------|

Thats about it. Love this song, greast album
Tap to rate this tab
# A B C D E F G H I J K L M N O P Q R S T U V W X Y Z