Song name
# A B C D E F G H I J K L M N O P Q R S T U V W X Y Z

White Lies - From The Stars tab

 Here's what I cooked up this evening it's not 100% but it does me, you may need
to play it along with the record to get the timings

b - bend to subsequent note
r - return bend to subsequent note
p - pull off
h - hammer on
v - vibrato

\ - slide down
/ - slide up

I saw a friend that i once knew at a funeral,
He took the time out to be seen.
His eyes kept glancing to the hour hand on the gold watch, that he'd been given by a magazine.

He didn't cry when the priest gave the sermon,
Just pulled up the woolen collar on his fleece.
Crossed his arms, gave a sigh and checked the time again,
As he sat inches from the wife of the deceased.

He catches raindrops from his window, it reminds him how we fall,
From the stars back to our cities, where we've never felt so small

Rain drops from his window making puddles in his hands,
He sees how quick the water's rising as another raindrop lands

(first little solo)

--------------------------------------------------------------------------|
-13b15r13-----------------------------------------------------------------|
------------------7-7-7-7-9b10r9b11\--------------------------------------|
-----------------------------------------------------         (times two--|
--------------------------------------------------------------------------|
--------------------------------------------------------------------------|


He took a chauffeur driven car back to his hotel,
Passing through the sick streets where he was born
He said "Driver, what's happened to these buildings? They all look run down and so folorn."


                                                 (Hit a big D chord here)
He took a shower in the bathroom of his penthouse,
Put the Do not Disturb on his door
When the maid came in the morning
She found him shivering on the bedroom floor


-------------15---10-------------------------------------------|
-------------15---10-------------------------------------------|
-------------16---11-------------------------------------------|
--------2---17---12------ (keep repeating this until the solo--|
--------2---17---12--------------------------------------------|
-12\---0---15---10---------------------------------------------|

He catches raindrops on his window, it reminds him how we falls,
From the stars back to our cities, where we've never felt so small

Rain drops from his window making puddles in his hands,
He sees how quick the water's rising as another raindrop lands

He catches raindrops from his window, it reminds him how we fall,
From the stars back to our cities, where we've never felt so small

Rain drops from his window making puddles in his hands,
He sees how quick the water's rising as another raindrop lands


Outro solo

-------------------------------------------------------------|
-13b15r13--13b15r13--13p10--------10-------------------------|
------------------------------------------12-----------------|
----------------------------------------------------12v------|
-------------------------------------------------------------|
-------------------------------------------------------------|


-------------------------------------------------13-------------|
------------------------------10--15----------------------------|
-12b13r12p10h12-------------------------------------------------|
----------------------------------------------------------------|
----------------------------------------------------------------|
----------------------------------------------------------------|


------------------------------------------------------------------|
-13b15r13--13b15r13--13p10-----------10---------------------------|
--------------------------------------------12--------------------|
--------------------------------------------------------12v-------|
------------------------------------------------------------------|
------------------------------------------------------------------|


-------------------------------------------------------------------|
--------------------------------10---------------------------------|
-12b13r12p10h12----------------10v---------12----------------------|
-------------------------------------------------------------------|
-------------------------------------------------------------------|
-------------------------------------------------------------------|


------------------------------------------------------------------|
--------------------------------10--------------------------------|
-12b13r12p10h12---------------------------------------------------|
-----------------------------------------12v----------------------|
------------------------------------------------------------------|
------------------------------------------------------------------|


--------------------------------------------------------13v--------|
-------------------------------10---15-----------------------------|
-12b13r12p10h12----------------------------------------------------|
-------------------------------------------------------------------|
-------------------------------------------------------------------|
-------------------------------------------------------------------|


----------------------------------------------------------------------------------|
-13b15r13--13b15r13--13p10----------10--------------------------------------------|
-------------------------------------------12-------------------------------------|
-----------------------------------------------------12v-------12-12-12/15--------|
----------------------------------------------------------------------------------|
----------------------------------------------------------------------------------|
Tap to rate this tab
# A B C D E F G H I J K L M N O P Q R S T U V W X Y Z