Song name
# A B C D E F G H I J K L M N O P Q R S T U V W X Y Z

White Lies - Unfinished Business tab

-------------------------------------------------------------------------------
			     Unfinished Business - White Lies
-------------------------------------------------------------------------------
Tabbed by: Stubbgubben
Email: : D

Tuning: Standard

Intro: 

No guitar. Feel free to sing along : D

Interlude:

Let each chord ring and wham them gently. 

   E       G#m     E       G#m     C#m               Bm      F#m
e|-12------16------12------16------16--16----16------14------14-|
B|-12------16------12------16------17---17---17------16------14-|
G|-13------16------13------16------18----18--18------16------14-|
D|-14--------------14-------------------------------------------|
A|--------------------------------------------------------------|
E|--------------------------------------------------------------|

Verse:

Same here, let 'em ring and wham them.
   E       G#m     E       G#m     E       G#m     E       G#m
e|-12------16------12------16------12------16------12------16-|
B|-12------16------12------16------12------16------12------16-|
G|-13------16------13------16------13------16------13------16-|
D|-14--------------14--------------14--------------14---------|
A|------------------------------------------------------------|
E|------------------------------------------------------------|

   C#m             Bm      F#m  
e|-16------16------14------14---------------------------------| 
B|-17------17------16------14---------------------------------|
G|-18------18------16------14---------------------------------|
D|------------------------------------------------------------|
A|------------------------------------------------------------|
E|------------------------------------------------------------|

Pre-chorus:

Strum them chords hard and let 'em ring

   E               E
e|-0---------------0---------------|
B|-0---------------0---------------|
G|-1---------------1---------------|
D|-2---------------2---------------|
A|-2---------------2---------------|
E|-0---------------0---------------|

1st chorus:

No guitar. Again, feel free to join in ^^ 

Interlude again

Verse again

Pre-chorus again

2nd chorus: 

   A                   B
e|-5-xx-5-xx-5-xx-5-xx-7-xx-7-xx-7-xx-7-xx-| 
B|-5-xx-5-xx-5-xx-5-xx-7-xx-7-xx-7-xx-7-xx-|
G|-6-xx-6-xx-6-xx-6-xx-8-xx-8-xx-8-xx-8-xx-|
D|-----------------------------------------|
A|-----------------------------------------|
E|-----------------------------------------|

   C#m                   
e|-4-xx-4-xx-4-xx-4-xx-4-xx-4-xx-4-xx-4-xx-| 
B|-5-xx-5-xx-5-xx-5-xx-5-xx-5-xx-5-xx-5-xx-|
G|-6-xx-6-xx-6-xx-6-xx-6-xx-6-xx-6-xx-6-xx-|
D|-----------------------------------------|
A|-----------------------------------------|
E|-----------------------------------------|

   A                   F#m
e|-5-xx-5-xx-5-xx-5-xx-2-xx-2-xx-2-xx-2-xx-| 
B|-5-xx-5-xx-5-xx-5-xx-2-xx-2-xx-2-xx-2-xx-|
G|-6-xx-6-xx-6-xx-6-xx-2-xx-2-xx-2-xx-2-xx-|
D|-----------------------------------------|
A|-----------------------------------------|
E|-----------------------------------------|

   C#m                   
e|-4-xx-4-xx-4-xx-4-xx-4-xx-4-xx-4-xx-4-xx-| 
B|-5-xx-5-xx-5-xx-5-xx-5-xx-5-xx-5-xx-5-xx-|
G|-6-xx-6-xx-6-xx-6-xx-6-xx-6-xx-6-xx-6-xx-|
D|-----------------------------------------|
A|-----------------------------------------|
E|-----------------------------------------| Repeat those 4 bars 2 times



And for the 3rd and last chorus just strum the chords from the 2nd chorus, 
only strum the whole chord, not just the higher strings. 
Oh, and, as you probably can tell, it's one strum every 4th beat.


I might come back and correct this if I find anything wrong. 
First tab, so : /

/Stubbgubben
Tap to rate this tab
 
# A B C D E F G H I J K L M N O P Q R S T U V W X Y Z