White Lies - Strangers tab

----------------------------------------------------------------------------
			   STRANGERS - White Lies
-----------------------------------------------------------------------------|

Tabbed by: Ross Adamson

Tuning: Standard

Pre-chorus

e|----------------------------------------------------------------------|
B|----------------------------------------------------------------------|
G|----------------------------------------------------------------------|
D|--6-x-x-x-6-x-x-x-6-x-x-x-8-x-x-x-10-x-x-x-10-x-x-x-10-x-x-x-10-x-x-x-|
A|--6-x-x-x-6-x-x-x-6-x-x-x-8-x-x-x-10-x-x-x-10-x-x-x-10-x-x-x-10-x-x-x-|
E|--4-x-x-x-4-x-x-x-4-x-x-x-6-x-x-x-8--x-x-x-8--x-x-x-8--x-x-x-8--x-x-x-|

e|----------------------------------------------------------------------|
B|----------------------------------------------------------------------|
G|----------------------------------------------------------------------|
D|--10-x-x-x-10-x-x-x-10-x-x-x-8-x-x-x-6-x-x-x-6-x-x-x-6-x-x-x-6-x-x-x--|
A|--10-x-x-x-10-x-x-x-10-x-x-x-8-x-x-x-6-x-x-x-6-x-x-x-6-x-x-x-6-x-x-x--|
E|--8--x-x-x-8--x-x-x-8--x-x-x-6-x-x-x-4-x-x-x-4-x-x-x-4-x-x-x-4-x-x-x--|

(x2)

Chorus

e|----------------------------------------------------------------------|
B|----------------------------------------------------------------------|
G|----------------------------------------------------------------------|
D|--10----8----6----5---------------------------------------------------|
A|--10----8----6----5---------------------------------------------------|
E|--8-----6----4----3---------------------------------------------------|

Final chorus

e|----------------------------------------------------------------------|
B|----------------------------------------------------------------------|
G|----------------------------------------------------------------------|
D|--10----8----6----3----6----13----10----------------------------------|
A|--10----8----6----3----6----13----10----------------------------------|
E|--8-----6----4----5----4----11----8-----------------------------------|

                                    (End on)
Tap to rate this tab
 
# A B C D E F G H I J K L M N O P Q R S T U V W X Y Z