Guitaretab - guitar tabs
Song name
# A B C D E F G H I J K L M N O P Q R S T U V W X Y Z

White Lies - Death tab

find more tabs at www.sjd-production.co.uk



Intro/Verse

|--------------|--------------|--------------|--------------|
|--------------|--------------|--------------|--------------|
|--------------|--------------|--------------|--------------|
|--------------|--------------|--------------|--------------|
|--------------|--------------|--------------|-----5--5--3--|
|--3--3--3--3--|--3--3--3--3--|--3--3--3--3--|--3-----------|



|--------------|--------------|--------------|--------------|
|--------------|--------------|--------------|--------------|
|--------------|--------------|--------------|--------------|
|--------------|--------------|--------------|--------------|
|--3--3--3--3--|--3--3--3--3--|--3--3--3--3--|--3--5--5--5--|
|--------------|--------------|--------------|--------------| x4 (from singing)


verse part 2
|--------------|--------------|--------------|--------------|
|--------------|--------------|--------------|--------------|
|--------------|--------------|--------------|--------------|
|--------------|--------------|--------------|--------------|
|--------------|--------------|--------------|-----5--5--3--|
|--3--3--3--3--|--3--3--3--3--|--3--3--3--3--|--3-----------|



|--------------|--------------|--------------|--------------|
|--------------|--------------|--------------|--------------|
|--------------|--------------|--------------|--------------|
|--------------|--------------|--------------|--------------|
|--3--3--3--3--|--3--3--3--3--|--3--3--3--7--|--7--7--7--7--|
|--------------|--------------|--------------|--------------| x3


pre chorus
|--------------|--------------|--------------|--------------|
|--------------|--------------|--------------|--------------|
|--------------|--------------|--------------|--------------|
|--------------|--------------|--------------|--------------|
|--------------|--------------|--------------|--------------|
|--3--3--3--3--|--3--3--3--3--|--3--3--3--3--|--3--3--3--3--|

[ Tab from: http://www.guitaretab.com/w/white-lies/305741.html ]
Chorus
   bm                       d                         g                       a           c
|--------------|--2--------2--|--3--------3--|--0-----0-----|
|--3--------3--|--3--------3--|--0--------0--|--2-----1-----|
|--4--------4--|--2--------2--|--0--------0--|--2-----0-----|
|--4--------4--|--0--------0--|--0--------0--|--2-----2-----|
|--2--------2--|--------------|--2--------2--|--0-----3-----|
|--------------|--------------|--3--------3--|--------------|

   g                                                   bm
|--3-----------|--------------|--------------|--------------|
|--0-----------|--------------|--3-----------|--------------|
|--0-----------|--------------|--4-----------|--------------|
|--0-----------|--------------|--4-----------|--------------|
|--2-----------|--------------|--2-----------|--------------|
|--3-----------|--------------|--------------|--------------|

  em                                                  bm                     d
|--0-----------|--------------|--------------|--2-----------|
|--0-----------|--------------|--3-----------|--3-----------|
|--0-----------|--------------|--4-----------|--2-----------|
|--2-----------|--------------|--4-----------|--0-----------|
|--2-----------|--------------|--2-----------|--------------|
|--0-----------|--------------|--------------|--------------|

verse 2
  g                                                   em                       c
|--3-----------|--------------|--0-----------|--0-----------|
|--0-----------|--------------|--0-----------|--1-----------|
|--0-----------|--------------|--0-----------|--0-----------|
|--0-----------|--------------|--2-----------|--2-----------|
|--2-----------|--------------|--2-----------|--3-----------|
|--3-----------|--------------|--0-----------|--------------|


end chords
   c                         d                        g                          em
|--0-----------|--2-----------|--3-----------|--0-----------|
|--1-----------|--3-----------|--0-----------|--0-----------|
|--0-----------|--2-----------|--0-----------|--0-----------|
|--2-----------|--0-----------|--0-----------|--2-----------|
|--3-----------|--------------|--2-----------|--2-----------|
|--------------|--------------|--3-----------|--0-----------|

play intro till end
Related for Death tab
Death chords by White Lies