Song name
# A B C D E F G H I J K L M N O P Q R S T U V W X Y Z

White Lies - Taxidermy tab

-------------------------------------------------------------------------------
                                                  TAXIDERMY - White Lies
-------------------------------------------------------------------------------


Tabbed by: Gareth Davies
Email: GarethDavies94@hotmail.co.uk

Tuning: EADGBE (Standard)

I Realised this incredible song had no tab on Ultimate-Guitar 
so i decided to tab it out myself. This tab has been transcribed 
entirely by ear, so please feel free to comment or email me if you 
find something wrong. This song is definately one of my favourites 
from the album "To Lose Your Life." For some reason this awesome 
track is a B'Side, no idea why, it is well deserved of full release.


To Begin with, the song starts off with synth, but after (00:02) Single
strum Guitar is audible.




 -VERSE
 (00:02) Guitar 1                            Slight Distortion/Reverb
e|---7------------------------------------3-----------2--------------------|
B|---7------------------------------------3-----------2--------------------|
G|---7------------------------------------4-----------2--------------------|
D|---9------------------------------------5-----------4--------------------|
A|---9------------------------------------5-----------4--------------------|
E|---7------------------------------------3-----------2--------------------|
    [Bm]                                 [G]        [F#m]

 
 (00:09) Guitar 1                            Slight Distortion/Reverb
e|---7------------------------------------3-----------2--------------------|
B|---7------------------------------------3-----------2--------------------|
G|---7------------------------------------4-----------2--------------------|
D|---9------------------------------------5-----------4--------------------|
A|---9------------------------------------5-----------4--------------------|
E|---7------------------------------------3-----------2--------------------|
    [Bm]                                 [G]        [F#m]


 (00:18) Guitar 1                            Slight Distortion/Reverb
e|---7------------------------------------3-----------2--------------------|
B|---7------------------------------------3-----------2--------------------|
G|---7------------------------------------4-----------2--------------------|
D|---9------------------------------------5-----------4--------------------|
A|---9------------------------------------5-----------4--------------------|
E|---7------------------------------------3-----------2--------------------|
    [Bm]                                 [G]        [F#m]
  Hang-ing-                              Keep-      Keep- Your Prom-ises


 (00:26) Guitar 1                            Slight Distortion/Reverb
e|---7------------------------------------3-----------2--------------------|
B|---7------------------------------------3-----------2--------------------|
G|---7------------------------------------4-----------2--------------------|
D|---9------------------------------------5-----------4--------------------|
A|---9------------------------------------5-----------4--------------------|
E|---7------------------------------------3-----------2--------------------|
    [Bm]                                 [G]        [F#m]
  Hang-ing                               Do-        What Your Fath-er Says

 
 (00:26) Guitar 1                            Slight Distortion/Reverb
e|---7------------------------------------3-----------2--------------------|
B|---7------------------------------------3-----------2--------------------|
G|---7------------------------------------4-----------2--------------------|
D|---9------------------------------------5-----------4--------------------|
A|---9------------------------------------5-----------4--------------------|
E|---7------------------------------------3-----------2--------------------|
    [Bm]                                 [G]        [F#m]
   I-                                  The Kids-    Keep Them Fast As-leep 


 (00:42) Guitar 1                            Slight Distortion/Reverb
e|---7------------------------------------3-----------2--------------------|
B|---7------------------------------------3-----------2--------------------|
G|---7------------------------------------4-----------2--------------------|
D|---9------------------------------------5-----------4--------------------|
A|---9------------------------------------5-----------4--------------------|
E|---7------------------------------------3-----------2--------------------|
    [Bm]                                 [G]        [F#m]
   You-r Soul                          Like- Tax-iderm-y




 -CHORUS
 (00:49) Guitar 1                            Slight Distortion/Reverb
e|---0------------------------------------2-----------2--------------------|
B|---0------------------------------------3-----------3--------------------|
G|---0------------------------------------2-----------4--------------------|
D|---2------------------------------------0-----------4--------------------|
A|---2------------------------------------x-----------2--------------------|
E|---x------------------------------------x-----------x--------------------|
    [Em]                                 [D]        [Bm]
No Kiss-                        Bab-y Don't-     Heart-


 (00:57) Guitar 1                            Slight Distortion/Reverb
e|---0------------------------------------3-----------2--------------------|
B|---0------------------------------------3-----------3--------------------|
G|---0------------------------------------0-----------4--------------------|
D|---2------------------------------------0-----------4--------------------|
A|---2------------------------------------2-----------2--------------------|
E|---x------------------------------------3-----------x--------------------|
    [Em]                                 [G]        [Bm]
    You-                               Mo-ney-      Fire-place-

 
 (01:05) Guitar 1                            Slight Distortion/Reverb
e|---0------------------------------------2-----------2--------------------|
B|---0------------------------------------3-----------3--------------------|
G|---0------------------------------------2-----------4--------------------|
D|---2------------------------------------0-----------4--------------------|
A|---2------------------------------------x-----------2--------------------|
E|---x------------------------------------x-----------x--------------------|
    [Em]                                 [D]        [Bm]
    Tellin'-                       White Lies-   It's Time-


 (01:15) Guitar 1                            Slight Distortion/Reverb
e|---0------------------------------------3-----------2--------------------|
B|---0------------------------------------3-----------3--------------------|
G|---0------------------------------------0-----------4--------------------|
D|---2------------------------------------0-----------4--------------------|
A|---2------------------------------------2-----------2--------------------|
E|---x------------------------------------3-----------x--------------------|
    [Em]                                 [G]        [Bm]
    You-                              Par-ents-   Fire-Place




 -VERSE
 (01:22) Guitar 1    (Strictly Down Strokes)   Slight Distortion/Reverb
e|---7777777777777777-------------------------333333---222222--------------|
B|---7777777777777777-------------------------333333---222222--------------|
G|---7777777777777777-------------------------444444---222222--------------|
D|---9999999999999999-------------------------555555---444444--------------|
A|---9999999999999999-------------------------555555---444444--------------|
E|---7777777777777777-------------------------333333---222222--------------|
         [Bm]                                  [G]     [F#m]


 (01:30) Guitar 1                             Slight Distortion/Reverb
e|---7777777777777777-------------------------333333---222222--------------|
B|---7777777777777777-------------------------333333---222222--------------|
G|---7777777777777777-------------------------444444---222222--------------|
D|---9999999999999999-------------------------555555---444444--------------|
A|---9999999999999999-------------------------555555---444444--------------|
E|---7777777777777777-------------------------333333---222222--------------|
         [Bm]                                  [G]     [F#m]


 (01:37) Guitar 1                             Slight Distortion/Reverb
e|---7777777777777777-------------------------333333---222222--------------|
B|---7777777777777777-------------------------333333---222222--------------|
G|---7777777777777777-------------------------444444---222222--------------|
D|---9999999999999999-------------------------555555---444444--------------|
A|---9999999999999999-------------------------555555---444444--------------|
E|---7777777777777777-------------------------333333---222222--------------|
         [Bm]                                  [G]     [F#m]
       I Saw-                                  You-r   She Cri-ed


 (01:45) Guitar 1                             Slight Distortion/Reverb
e|---7777777777777777-------------------------333333---222222--------------|
B|---7777777777777777-------------------------333333---222222--------------|
G|---7777777777777777-------------------------444444---222222--------------|
D|---9999999999999999-------------------------555555---444444--------------|
A|---9999999999999999-------------------------555555---444444--------------|
E|---7777777777777777-------------------------333333---222222--------------|
         [Bm]                                  [G]     [F#m]
       I Saw-                                  Now-    I'll Be You-r-


 (01:53) Guitar 1                             Slight Distortion/Reverb
e|---7777777777777777-------------------------333333---222222--------------|
B|---7777777777777777-------------------------333333---222222--------------|
G|---7777777777777777-------------------------444444---222222--------------|
D|---9999999999999999-------------------------555555---444444--------------|
A|---9999999999999999-------------------------555555---444444--------------|
E|---7777777777777777-------------------------333333---222222--------------|
         [Bm]                                  [G]     [F#m]
     You Coul-dn't                            Cus-     We-re So Proud-


 (02:00) Guitar 1                             Slight Distortion/Reverb
e|---7777777777777777-------------------------333333---222222--------------|
B|---7777777777777777-------------------------333333---222222--------------|
G|---7777777777777777-------------------------444444---222222--------------|
D|---9999999999999999-------------------------555555---444444--------------|
A|---9999999999999999-------------------------555555---444444--------------|
E|---7777777777777777-------------------------333333---222222--------------|
         [Bm]                                  [G]     [F#m]
     Our Eyes-                                Like- Taxi-Derm-y




 -CHORUS
 (02:08) Guitar 1                            Distortion/Slight Reverb
e|---xxxxxxxx---xxxxxxxx---xxxxxxxxxxxxxxxx--------------------------------|
B|---xxxxxxxx---xxxxxxxx---xxxxxxxxxxxxxxxx--------------------------------|
G|---99999999---77777777---4444444444444444--------------------------------|
D|---99999999---77777777---4444444444444444--------------------------------|
A|---77777777---55555555---2222222222222222--------------------------------|
E|---xxxxxxxx---xxxxxxxx---xxxxxxxxxxxxxxxx--------------------------------|
      [E5]        [D5]        [B5]
   No Kiss-    So Bab-y       Heart-


 (02:16) Guitar 1                            Distortion/Slight Reverb
e|---xxxxxxxx---xxxxxxxx---xxxxxxxxxxxxxxxx--------------------------------|
B|---xxxxxxxx---xxxxxxxx---xxxxxxxxxxxxxxxx--------------------------------|
G|---99999999---xxxxxxxx---4444444444444444--------------------------------|
D|---99999999---55555555---4444444444444444--------------------------------|
A|---77777777---55555555---2222222222222222--------------------------------|
E|---xxxxxxxx---33333333---xxxxxxxxxxxxxxxx--------------------------------|
      [E5]        [G5]        [B5]
   You-      the Mon-ey-  Fire-Place-


 (02:23) Guitar 1                            Distortion/Slight Reverb
e|---xxxxxxxx---xxxxxxxx---xxxxxxxxxxxxxxxx--------------------------------|
B|---xxxxxxxx---xxxxxxxx---xxxxxxxxxxxxxxxx--------------------------------|
G|---99999999---77777777---4444444444444444--------------------------------|
D|---99999999---77777777---4444444444444444--------------------------------|
A|---77777777---55555555---2222222222222222--------------------------------|
E|---xxxxxxxx---xxxxxxxx---xxxxxxxxxxxxxxxx--------------------------------|
      [E5]        [D5]        [B5]
   You Keep-      Litt-le-    It's Time-


 (02:32) Guitar 1                            Distortion/Slight Reverb
e|---xxxxxxxx---xxxxxxxx---xxxxxxxxxxxxxxxx--------------------------------|
B|---xxxxxxxx---xxxxxxxx---xxxxxxxxxxxxxxxx--------------------------------|
G|---99999999---xxxxxxxx---4444444444444444--------------------------------|
D|---99999999---55555555---4444444444444444--------------------------------|
A|---77777777---55555555---2222222222222222--------------------------------|
E|---xxxxxxxx---33333333---xxxxxxxxxxxxxxxx--------------------------------|
      [E5]        [G5]        [B5]
     Now Burn-    Parents-  Fire-Place-




 -OUTRO
 (02:39) Guitar 1                            Distortion/Slight Reverb
e|---xxxxxxxxxxxxxxxxx---2222222222222222---11111111111111111-/------------|
B|---xxxxxxxxxxxxxxxxx---3333333333333333---33333333333333333-/------------|
G|---77777777777777666---4444444444444444---33333333333333333-/------------|
D|---77777777777777777---4444444444444444---33333333333333333-/------------|
A|---55555555555555444---2222222222222222---11111111111111111-/------------|
E|---xxxxxxxxxxxxxxxxx---xxxxxxxxxxxxxxxx---xxxxxxxxxxxxxxxxx-/------------|
         [D5]    [D/C#]        [Bm]              [Bb]


 (02:50) Guitar 1                            Distortion/Slight Reverb
e|-/--xxxxxxxxxxxxxxxxx---2222222222222222---11111111111111111-/--9--------|
B|-/--xxxxxxxxxxxxxxxxx---3333333333333333---33333333333333333-/--10-------|
G|-/--77777777777777666---4444444444444444---33333333333333333-/--11-------|
D|-/--77777777777777777---4444444444444444---33333333333333333-/--11-------|
A|-/--55555555555555444---2222222222222222---11111111111111111-/--9--------|
E|-/--xxxxxxxxxxxxxxxxx---xxxxxxxxxxxxxxxx---xxxxxxxxxxxxxxxxx-/--x--------|
         [D5]     [D/C#]        [Bm]              [Bb]          [F#m]



                                    **END**



-----------------------------------------------------------------------------
Thankyou for using my tab. I hope you enjoyed it and i hope you found it
accurate and easy enough to understand. Please, please comment, correct 
or any general feedback is always more than welcome. Oh.. Rate 5 Stars ;) 
-----------------------------------------------------------------------------

*************************************

| /   slide up
| \   slide down
| h   hammer-on
| p   pull-off
| ~   vibrato
| +   harmonic
| x   Mute note
| b   Bend
| pb  Pre-bend
| br  Bend release
| pbr Pre-bend release
| brb Bend release bend

************************************
Tap to rate this tab
 
# A B C D E F G H I J K L M N O P Q R S T U V W X Y Z