Song name
# A B C D E F G H I J K L M N O P Q R S T U V W X Y Z

White Lion - Till Death Do Us Part tab

white lion-- till death do us part

: ambo (anterxiv@yahoo.com)

notepad
standard tuning

L--drive(multi-use distortion)

1st b4 solo:

e|--14-16-14-13-14-13-11--(2x)--------------13-----------------------------------|
B|-------------------------------------------------------------------------------|
G|-------------------------------------------------------------------------------|
D|-----------------------------3-3/10-10/15--------------------------------------|
A|-------------------------------------------------------------------------------|
E|-------------------------------------------------------------------------------|

solo part:
		      a.h.
e|-------------------------------------------------------------------------------|
B|--11f-11-10h11-10f--10---------------------------------------------------------|
G|--------------------------10h12-12/14-12\10-12---------------------------------|
D|-----------------------------------------------12-12---------------------------|
A|-------------------------------------------------------------------------------|
E|-------------------------------------------------------------------------------|




e|-------------------------------------------------------------------------------|
B|-----10-8-/8-6-/6-4--4-3----11-10-11----11-10-11----11-10-11-------------------|
G|------------------------5------------10----------10----------10----------------|
D|--/10--------------------------------------------------------------------------|
A|-------------------------------------------------------------------------------|
E|-------------------------------------------------------------------------------|


			     a.h.
e|--------------------------------------------17-15-16---------------------------|
B|--11-10-11--11f--10h11-10--10--/15-14-15---------------------------------------|
G|-------------------------------------------------------------------------------|
D|-------------------------------------------------------------------------------|
A|-------------------------------------------------------------------------------|
E|-------------------------------------------------------------------------------|



e|--15-17-18-17-17--22-20-18-----------------------------------------------------|
B|---------------------------18--------------------------------------------------|
G|-------------------------------------------------------------------------------|
D|-------------------------------------------------------------------------------|
A|-------------------------------------------------------------------------------|
E|-------------------------------------------------------------------------------|


Legend:
	/ - slide
	h - hammer
	a.h. - artificial harmonic
	f - fullbend
	\ -slide back

ppg6.


Intro: Bb--F--G#--Eb-F-


Verse 1:
Bb
  As we talk the golden mile
F                 G#
  Down the pretty isle
                    Eb
I know that you are mine
            F               Bb
And therešs nothing in this world
                         F/A
That I know that I wonšt do
                    Cm
To be near you everyday
                 F
Every hour every minute


Refrain:
Gm
Take my hand and
F               Eb Eb-Bb/D-Cm-Bb
let me lead the way


Chorus 1:
Bb                 F
  All through your life
                 Gm
Išll be by your side
                 F   F-Gm-F/A--Bb-Cm--Bb/D-Eb-F-
Till death do us part
Bb             F
  Išll be your friend
                   Gm
My love will never end
                 Eb  F
Till death do us part


Verse 2:
Bb                    F/A
  When I wake up everyday
                     G#
With you lying in my arms
                Eb
I wonder if Išm dreaming
       F              Bb
When I look into your eyes
                          F/A
I just canšt believe itšs true
                         Cm
That my heart belongs to you
                     F
Baby you can have it all


(Repeat Refrain and Chorus)


Bridge:
C#            F#m
  Therešll be good times
C#                F#m
  And therešll be bad
C#    G#/C    Bbm
  But I will stand
  G#       F#
beside you woman
G#      C#
All the way
Ebm
  And thru the years
   G#
As life goes on and on
      F
When snow will fall
on winter nights
Išll keep you warm inside
Yeah baby I will


Guitar Solo: Bb--F--Gm--F-F-Gm-F/A--Bb-Cm--Bb/D-Eb-F--|
Bb--F--Gm--Eb--F--------------------------------------|


(Repeat Chorus 1)


Chorus 2: Modulate from Bb to C#
          C#
Baby I'll be there
              G#
All thru your life
                Bbm
Išll be by your side
                 G#  G#-Bbm-G#/C--C#-Ebm--C#/F-F#-G#
Till death do us part
C#                  G#
  Baby Išll be your friend
                   Bbm
My love will never end
                 G#  G#-Bbm-G#/C--C#-Ebm--C#/F-F#-G#
Till death do us part


Outro:
         C#
Hey baby be there
          F#
baby i'll be there
                 G#
all through your life
                         Bbm
and you know that You'll be there
                                     G#  G#-Bbm-G#/C--C#-Ebm--C#/F-F#-G#
know that you'll be there waiting forever
         C#
Hey baby be there
          F#
baby i'll be there
                 G#
all through your life
                         Bbm
and you know that You'll be there
                                     G#  G#-Bbm-G#/C--C#-Ebm--C#/F-F#-G#
know that you'll be there waiting forever

Tap to rate this tab
 
# A B C D E F G H I J K L M N O P Q R S T U V W X Y Z