White Lion - Youre All I Need tab

youre all i need: white lion

tab by:ambo (anterxiv@yahoo.com)
standard tuning
(notepad)
 
L--drive (multi-use distortion)

solo part: g-a-d,a/c#,bm,a
	   g-a-f#-bm-a-g-a hold

e|--3--------------------10h1210-12-9---------10-7h107-10-5----------------------|
B|--3-3-8-10-12-10-/7t8---------------12-7h87---------------7-5h7-7--------------|
G|--0----------------------------------------------------------------------------|
D|--0----------------------------------------------------------------------------|
A|--2----------------------------------------------------------------------------|
E|--3----------------------------------------------------------------------------|

			     f		 f
e|--14-12p9-9-17-19-15-14----12-10p7-7-9-9-9------/15-17-19-17-------------------|
B|-----------------------/10-----------------10-8--------------------------------|
G|-------------------------------------------------------------------------------|
D|-------------------------------------------------------------------------------|
A|-------------------------------------------------------------------------------|
E|-------------------------------------------------------------------------------|

Legend:
	/ - slide
	f - full
	h - hammer
	p - pulloff

ppg6
Tap to rate this tab
 
# A B C D E F G H I J K L M N O P Q R S T U V W X Y Z