Song name
# A B C D E F G H I J K L M N O P Q R S T U V W X Y Z

White Lion - Tell Death Do Us Part tab

E|----16-------------------------16-----------------------|
B|-19----19-19-18-16-16-14-14-19----19-19-18-16-16--------|
G|-------------------------------------------------2-5-10-|
D|--------------------------------------------------------|
A|--------------------------------------------------------|
E|--------------------------------------------------------|

solo:

E|-----------------17-------------------------------------|
B|--------------------------------------------------------|
G|-/17-15-15-17-15----17-15-17-17-15-17-15-17-15-12~~~~~~~|
D|--------------------------------------------------------|
A|--------------------------------------------------------|
E|--------------------------------------------------------|

E|--------------------------------------------------------|
B|--------------------------------------------------------|
G|--------------------------------------------------------|
D|-17-19-17/15-1715/13-15-13/12-13-12---------------------|
A|--------------------------------------------------------|
E|--------------------------------------------------------|

E|------------------------------------------17-15-18~~~~~~|
B|-11-9-11----11-9-11----11-9-11-13-13-11-10-/15-14-15----|
G|---------11---------11----------------------------------|
D|--------------------------------------------------------|
A|--------------------------------------------------------|
E|--------------------------------------------------------|

E|-15-/15-17-18-17-21-20-18-------------------------------|
B|--------------------------18~~~~~-----------------------|
G|--------------------------------------------------------|
D|--------------------------------------------------------|
A|--------------------------------------------------------|
E|--------------------------------------------------------|

       hope you understand it, it's 90% correct

tab by: HAPON
Tap to rate this tab
 
# A B C D E F G H I J K L M N O P Q R S T U V W X Y Z