Song name
# A B C D E F G H I J K L M N O P Q R S T U V W X Y Z

White Lion - Till Death Do Us Part tab

Title: Till Death Do Us Part
Artist: White Lion
Guitarist: Vito Brata
Tab by: FafaLey

NOTE: Guitar Version Only 

Standard Tuning

                                                                Life...  Side....
E|--------|--------|--------|--------|----------------|--------|--------|--------|
B|--------|--------|--------|--------|----------------|--------|--------|--------|
G|--------|--------|--------|--------|----------------|-3------|--------|--------|
D|--------|--------|--------|--------|------1--0------|-3------|-3------|-5------|
A|--------|--------|--------|--------|------------3---|-1------|-3------|-5------|
E|--------|--------|--------|--------|----------------|--------|-1------|-3------|

  Part........                                    Friend.. End..... Part.......
E|--------------------------------------|--------|--------|--------|-------------|
B|--------------------------------------|--------|--------|--------|-------------|
G|--------------------------------------|-3------|--------|--------|-8-----10----|
D|-3---------------------------0--1--3--|-3------|-3------|-5------|-8-----10----|
A|-3----------0---0--1--3---3-----------|-1------|-3------|-5------|-6-----8-----|
E|-1----1--3----------------------------|--------|-1------|-3------|-------------|


E|---------------------|-----------------|--------|--------|--------|--------|--------|
B|---------------------|-----------------|--------|--------|--------|--------|--------|
G|-3----3----3----3----|-3----3----------|--------|--------|--------|--------|--------|
D|-3----3----3----3----|-3----3----------|--------|--------|--------|--------|--------|
A|-1----1----1----1----|-1----1----------|--------|--------|--------|--------|--------|
E|---------------------|-----------------|--------|--------|--------|--------|--------|

                    Way.....         Life...  Side...  Part...
E|--------|--------|----------------|--------|--------|--------|
B|--------|--------|----------------|--------|--------|--------|
G|--------|--------|----------------|-3------|--------|--------|
D|--------|--------|------1--0------|-3------|-3------|-5------|
A|--------|--------|------------3---|-1------|-3------|-5------|
E|--------|--------|----------------|--------|-1------|-3------|

E|--------------------------------------|
B|--------------------------------------|
G|--------------------------------------|
D|-3---------------------------0--1--3--|
A|-3----------0---0--1--3---3-----------|
E|-1----1--3----------------------------|
                                           

  Friend.. End....  Part............       BRIDGE
E|--------|--------|--------|-------------|-----------------|-----------------------|
B|--------|--------|--------|-------------|-----------------|-----------------------|
G|-3------|--------|--------|-8-----10----|-6-----11----13--|-10----8--6--11----13--|
D|-3------|-3------|-5------|-8-----10----|-0-----0-----0---|-0-----0--0--0-----0---|
A|-1------|-3------|-5------|-6-----8-----|-4-----9-----11--|-8-----6--4--9-----11--|
E|--------|-1------|-3------|-------------|-----------------|-----------------------|


E|---------------------|-----------------6---|-14---14-16-14-13-14--13------------|
B|---------------------|---------------------|-------------------------16---16-14-|
G|-10---8----6----5----|-6----8----10--------|------------------------------------|
D|-0----0----0----0----|-0----0----0---------|------------------------------------|
A|-8----6----4----3----|-4----6----8---------|------------------------------------|
E|---------------------|---------------------|------------------------------------|

                                                                    GUITAR SOLO
E|------14-16-14-13-14--13----------|---------------------|--------|----------------------|
B|-13----------------------16---16--|---------------------|--------|----------------------|
G|----------------------------------|-2-----2---5-----5---|-10-----|-15b--15-------14b-15-|
D|----------------------------------|---------------------|--------|----------------------|
A|----------------------------------|---------------------|--------|----------------------|
E|----------------------------------|---------------------|--------|----------------------|


E|------18-17----17-----------|---------------------------|
B|------------------0---------|----10---------------------|
G|-14---------------0--101210-|-12----12-10-12------------|
D|------------------12--------|------------------12-12----|
A|----------------------------|---------------------------|
E|----------------------------|---------------------------|

E|-------------------------------------------------|
B|-------------------------------------------------|
G|----14-12----12-10----------------------15-14-15-|
D|-10-------8-----------15-13----13-12-------------|
A|-------------------12-------10-------12----------|
E|-------------------------------------------------|


E|------------------------------------------------|---------------------------|-17---15-18-----|
B|------------------------------------------------|---------------15--14--15--|----------------|
G|----15-14-15----15-14-15----15-14-15-17---1514--|-14b--14-------------------|----------------|
D|-15----------15----------15-------------------15|---------------------------|----------------|
A|------------------------------------------------|---------------------------|----------------|
E|------------------------------------------------|---------------------------|----------------|


E|-15---15--17--18--17---22--20--18--|---------------------|--------|----------------|
B|-----------------------------------|-18---18---18---18---|--------|----------------|
G|-----------------------------------|---------------------|--------|----------------|
D|-----------------------------------|---------------------|--------|----------------|
A|-----------------------------------|---------------------|--------|----------------|
E|-----------------------------------|---------------------|--------|------------8---|

  Part....                                        Friend.. 
E|--------------------------------------|--------|--------|
B|--------------------------------------|--------|--------|
G|--------------------------------------|-3------|--------|
D|-3---------------------------0--1--3--|-3------|-3------|
A|-3----------0---0--1--3---3-----------|-1------|-3------|
E|-1----1--3----------------------------|--------|-1------||

  End...   Part.........
E|--------|--------------------------------------|
B|--------|--------------------------------------|
G|--------|--------------------------------------|
D|-5------|-3---------------------------0--1--3--|
A|-5------|-3----------0---0--1--3---3-----------|
E|-3------|-1----1--3----------------------------

  There..  Life..   Side...  Part............                                Friend..
E|--------|--------|--------|--------------------------------------|--------|--------|
B|--------|--------|--------|--------------------------------------|--------|--------|
G|-6------|--------|--------|--------------------------------------|-6------|--------|
D|-6------|-6------|-8------|-6---------------------------3--4--6--|-6------|-6------|
A|-4------|-6------|-8------|-6----------3---3--4--6---6-----------|-4------|-6------|
E|--------|-4------|-6------|-4----4--6----------------------------|--------|-4------|

  End...   Part...                                         
E|--------|--------------------------------------|--------|
B|--------|--------------------------------------|--------|
G|--------|--------------------------------------|-6------|
D|-8------|-6---------------------------3--4--6--|-6------|
A|-8------|-6----------3---3--4--6---6-----------|-4------|
E|-6------|-4----4--6----------------------------|--------|

  Life..   There..  Me....
E|--------|--------|--------------------------------------|
B|--------|--------|--------------------------------------|
G|--------|--------|--------------------------------------|
D|-6------|-8------|-6---------------------------3--4--6--|
A|-6------|-8------|-6----------3---3--4--6---6-----------|
E|-4------|-6------|-4----4--6----------------------------|


  There..                                   Me....
E|-------------|-------------|-------------|--------------------------------------|
B|-------------|-------------|-------------|--------------------------------------|
G|-6-----6-----|-------------|-------------|--------------------------------------|
D|-6-----6-----|-6-----6-----|-8-----8-----|-6---------------------------3--4--6--|
A|-4-----4-----|-6-----6-----|-8-----8-----|-6----------3---3--4--6---6-----------|
E|-------------|-4-----4-----|-6-----6-----|-4----4--6----------------------------|


E|---------13--16---16----|------------------------|------------------------|--------------------|
B|-14--16-----------------|-----14--16-------------|---------14-------------|---------13--16-----|
G|------------------------|-17----------13---13----|-15--17------10---10----|-13--15-------------|
D|------------------------|------------------------|------------------------|--------------------|
A|------------------------|------------------------|------------------------|--------------------|
E|------------------------|------------------------|------------------------|--------------------|


E|--------|
B|-6------|
G|-6------|
D|-6------|
A|--------|
E|--------|




Tap to rate this tab
# A B C D E F G H I J K L M N O P Q R S T U V W X Y Z