Guitaretab - guitar tabs
Song name
# A B C D E F G H I J K L M N O P Q R S T U V W X Y Z

White Lion - Youre All That I Need Solo tab

You're all that I need (SOLO)
White Lion
Tabbed by : Ariel Prado
E-mail    : ariel_ruth0411@yahoo.com
Done      : January 8, 2005 (10:35am)


Hello to all my co-guitarist Jorgen Bruan, Alvin Prado, Janjan Pantua>>(thanks to your
guitar).To all my classmates in University of Luzon (Michael Quinto, Dennis Bruan,
Michelle Arzadon, Chairman, Reynald) This is all for you hope you'll enjoy it. And of
course to my dearest one Ruthie Ann Torralba of PhilCST...

Note: Please listen to the music while playing it to know how fast to pick the tabs...I
will also give the plucking of this as soon as I'm done encoding it. Have fun!!!

e|-----------7--------------------14--12h14p12-12-10--9----||
B|------8-10---10-------10----------------------------------||
G|----------------7/9-9------9/11---------------------------||
D|---10-----------------------------------------------------||
A|----------------------------------------------------------||
E|----------------------------------------------------------||

[ Tab from: http://www.guitaretab.com/w/white-lion/55639.html ]
e|------------10--9h10p9---10--9---------------------------||
B|---7h8p7-------------------------10--5h77^---------------||
G|----------------------------------------------------------||
D|----------------------------------------------------------||
A|----------------------------------------------------------||
E|----------------------------------------------------------||


e|---14^--14p12p10------17-19--15--14----------------------||
B|------------------14------------------10------------------||
G|----------------------------------------------------------||
D|----------------------------------------------------------||
A|----------------------------------------------------------||
E|----------------------------------------------------------||


e|---13^--13p12p10-----7--9^v--7h9p7------12-15--17--19-17-||
B|------------------12-----------------8--------------------||
G|----------------------------------------------------------||
D|----------------------------------------------------------||
A|----------------------------------------------------------||
E|----------------------------------------------------------||
                                                 By:             
                                                     "The FIEZER"


Legend:

h	- hammer-on
p	- pull-off
^	- bent up
v	- down
/	- slide up
Related for Youre All That I Need Solo tab