Song name
# A B C D E F G H I J K L M N O P Q R S T U V W X Y Z

White Rabbits - Percussion Gun tab

-------------------------------
White Rabbits - Percussion Gun
-------------------------------

Tabbed by:Greg Whittaker

Tuning:Standard

Capo:None


e|---------------------------------------------------------------------------|
B|---9-9---8-8---3-3---3-3----9-9---8-8---3-3---3-3----9-9---8-8---3-3---3-3-|
G|---------------------------------------------------------------------------|
D|---------------------------------------------------------------------------|
A|-8-----6-----1-----1------8-----6-----1-----1------8-----6-----1-----1-----|
E|---------------------------------------------------------------------------|

e|---------------------------------------------------------------------------|
B|--1-1---1-1---1-1---1-1----------------------------------------------------|
G|---------------------------------------------------------------------------|
D|---------------------------------------------------------------------------|
A|---------------------------------------------------------------------------|
E|-0----0-----0-----0--------------------------------------------------------|


-------------------------
www.whiterabbitsmusic.com
Tap to rate this tab
# A B C D E F G H I J K L M N O P Q R S T U V W X Y Z