Song name
# A B C D E F G H I J K L M N O P Q R S T U V W X Y Z

White Rabbits - The Plot tab

----------------------------------------
The Plot -- White Rabbits
----------------------------------------

Song: The Plot
Artist: White Rabbits
Album: Fort Nightly

Tuning: Standard E-A-D-G-B-E


[verse]

E--x--x-----x--x---x--x---x--x--x-x-x--x--x-----x--x---x--x--x-x--x-x-x-x-|
B--12-12----6--6---8--8---8--8--x-x-x--12-12----6--6---8--8--8-8--x-x-x-x-|
G--12-12----7--7---8--8---8--8--x-x-x--12-12----7--7---8--8--8-8--x-x-x-x-|
D--11-11----8--8---8--8---8--8--x-x-x--11-11----8--8---8--8--8-8--x-x-x-x-|
A--x--x-----x--x---x--x---x--x--x-x-x--x--x-----x--x---x--x--x-x--x-x-x-x-|
E--x--x-----x--x---x--x---x--x--x-x-x--x--x-----x--x---x--x--x-x--x-x-x-x-|
   Gm        Bb       Eb


[last time]

E--x--x-----x--x---x--x--x-x----3--|
B--12-12----6--6---8--8--8-8----4--|
G--12-12----7--7---8--8--8-8----5--|
D--11-11----8--8---8--8--8-8----5--|
A--x--x-----x--x---x--x--x-x----x--|
E--x--x-----x--x---x--x--x-x----x--|
                              Cm

* and hold the final Cm chord

[bridge]

E--3-3--6-6--x--x---x--x---|
B--4-4--8-8--11-11--11-11--|
G--5-5--8-8--12-12--12-12--|
D--5-5--x-x--12-12--12-12--|
A--x-x--x-x--x--x---x--x---|
E--x-x--x-x--x--x---x--x---|

[transition out of bridge, then back into verse...]

E--3-3--6-6--x--x---x--x----3-3--x-x--x-x--x-x-|
B--4-4--8-8--11-11--11-11---4-4--6-6--8-8--8-8-|
G--5-5--8-8--12-12--12-12---5-5--7-7--8-8--8-8-|
D--5-5--x-x--12-12--12-12---5-5--8-8--8-8--8-8-|
A--x-x--x-x--x--x---x--x----x-x--x-x--x-x--x-x-|
E--x-x--x-x--x--x---x--x----x-x--x-x--x-x--x-x-|
Tap to rate this tab
 
# A B C D E F G H I J K L M N O P Q R S T U V W X Y Z