Song name
# A B C D E F G H I J K L M N O P Q R S T U V W X Y Z

White Rabbits - Percussion Gun tab

-------------------------------------------------------------------------------
			    Percussion Gun - White Rabbits
-------------------------------------------------------------------------------
Tabbed by:Sean Quaid
Email:quadbike93@hotmal.com

Tuning: Standerd

e|---------------------------------------------------------------------------|
B|--------9----9----------------8-----8---------3------3---------3-------3---|
G|---------------------------------------------------------------------------|
D|---10---------------------8---------------3---------------3----------------|
A|---------------------------------------------------------------------------|
E|---------------------------------------------------------------------------|
                                 repeat for most of song


                      at end of verses play this:

e|---------------------------------------------------------------------------|
B|-------9----9----------------8----8-------------3------3----------3----3---|
G|---------------------------------------------------------------------------|
D|--10-----------------8---------------------3-------------------3-----------|
A|---------------------------------------------------------------------------|
E|---------------------------------------------------------------------------|

e|---------------------------------------------------------------------------|
B|---------1------1------------1-------1------------1-----1---------1-----1--|
G|---------------------------------------------------------------------------|
D|--1-------------------1---------------------1----------------1-------------|
A|---------------------------------------------------------------------------|
E|---------------------------------------------------------------------------|

                     play dead noted for ohhh ohhhh ohhhh bit:
e|-------x---x---x---x---x---x---x---x---x---x---x---x-----------------------|
B|-------x---x---x---x---x---x---x---x---x---x---x---x-----------------------|
G|-------x---x---x---x---x---x---x---x---x---x---x---x-----------------------|
D|-------x---x---x---x---x---x---x---x---x---x---x---x-----------------------|
A|-------x---x---x---x---x---x---x---x---x---x---x---x-----------------------|
E|-------x---x---x---x---x---x---x---x---x---x---x---x-----------------------|
Tap to rate this tab
# A B C D E F G H I J K L M N O P Q R S T U V W X Y Z