Song name
# A B C D E F G H I J K L M N O P Q R S T U V W X Y Z

White Rabbits - They Done Wrong We Done Wrong tab

added capo to make hammer ons and change ups a bit easier. 

Tuning: Standard - Capo on 3

e|---------------------------------0--------2------2------2------2------2--|
B|---3------3------3------3---------0--------3------3------3------3------3-|
G|----4------4------4------4------------0h2------2------2------2------2----|
D|-4------4------4------4------0h2-----------------------------------------|
A|-------------------------------------------------------------------------|
E|-------------------------------------------------------------------------|

e|----2------2------2------2--------4--------5------5------5------5------5-|
B|-----3------3------3------3--------5--------7------7------7------7------7|
G|2h4------4------4------4------2/4------5/7------7------7------7------7---|
D|-------------------------------------------------------------------------|
A|-------------------------------------------------------------------------|
E|-------------------------------------------------------------------------|



************************************

| /   slide up
| \   slide down
| h   hammer-on
| p   pull-off
| ~   vibrato
| +   harmonic
| x   Mute note
| b   Bend
| pb  Pre-bend
| br  Bend release
| pbr Pre-bend release
| brb Bend release bend

************************************
Tap to rate this tab
# A B C D E F G H I J K L M N O P Q R S T U V W X Y Z