Song name
# A B C D E F G H I J K L M N O P Q R S T U V W X Y Z

White Skull - High Treason tab

Heyys its again bradleishman14@live.com.au with another tab
this time from White Skull who i must say arent as popular
as they should be as their music is superb but ah just yeh
enjoy what ive got :)


Riff 1
E---------------------------------------------------------------|
B-4-0000000-6-0000000-7-0000000-9-0000p7s6--4-0000000-6-0000000-|
G---------------------------------------------------------------|
D---------------------------------------------------------------|
A---------------------------------------------------------------|
E---------------------------------------------------------------|

Riff 2
E------------------|
B------------------|
G-6-4-6------------|
D-6-4-6------------|
A-4-2-4------------|
E------------------|

Riff 3/ Then after you play riff 1 again instead of riff 2 you play this 
E------------------
B------------------
G-4----------------
D-4----------------
A-2----------------
E------------------

Riff 4 
E----------------------------------------------------------------|
B-5-0000000-7-0000000-8-0000000-10-0000p8s7--5-0000000-7-0000000-|
G----------------------------------------------------------------|
D----------------------------------------------------------------|
A----------------------------------------------------------------|
E----------------------------------------------------------------|

Riff 5
E------------------|
B------------------|
G-8-6-8------------|
D-8-6-8------------|
A-6-4-6------------|
E------------------|

Riff 6/ Then after you play riff 4 again instead of riff 5 you play this
E------------------|
B------------------|
G-6----------------|
D-6----------------|
A-4----------------|
E------------------|

Riff 7
E-----------------|
B-----------------|
G-6--6--4-2---2-4-|
D-6--6--4-2---2-4-|
A-4--4--2-------2-|
E-----------------|

And thats all i got so far guys well actually all i
could be bothered to tab really lol
Tap to rate this tab
# A B C D E F G H I J K L M N O P Q R S T U V W X Y Z