Song name
# A B C D E F G H I J K L M N O P Q R S T U V W X Y Z

White Skull - Asgard tab

bradleishman14@live.com.au and just chucking in what i recently worked out 
of the solo, enjoy

E|------------------------------------------------------------------------|
B|--------16h18-16h18-14h16-------16h18-16h18-14h16-------16h18-16h18-14h1|
G|--15h17-------------------15h17-------------------15h17-----------------|
D|------------------------------------------------------------------------|
A|------------------------------------------------------------------------|
E|------------------------------------------------------------------------|

E|---------------------|
B|---------------------|
G|--17-0-15-0-13-0-11--|
D|---------------------|
A|---------------------|
E|---------------------|

E|-------------------------------------------------------------------------|
B|--------14h16-14h16-13h14-------14h16-14h16-13h14-------14h16-14h16-14h16|
G|--13h15-------------------13h15-------------------13h15------------------|
D|-------------------------------------------------------------------------|
A|-------------------------------------------------------------------------|
E|-------------------------------------------------------------------------|

E|---------------------|
B|---------------------|
G|--17-0-15-0-13-0-11--|
D|---------------------|
A|---------------------|
E|---------------------|

E|-------------------------------------------------------------------------|
B|--------16h18-16h18-14h16-------16h18-16h18-14h16-------16h18-16h18-14h16|
G|--15h17-------------------15h17-------------------15h17------------------|
D|-------------------------------------------------------------------------|
A|-------------------------------------------------------------------------|
E|-------------------------------------------------------------------------|

E|---------------------|
B|---------------------|
G|--17-0-15-0-13-0-11--|
D|---------------------|
A|---------------------|
E|---------------------|
Tap to rate this tab
 
# A B C D E F G H I J K L M N O P Q R S T U V W X Y Z