Guitaretab - guitar tabs
Song name
# A B C D E F G H I J K L M N O P Q R S T U V W X Y Z

White Stripes - Lovesick tab

The White Stripes
Life on the Flipside

LoVeSiCk

Song
|Am	|	|	|	|
|Am    	|G	|Am	|Am	|
|Am    	|G	|Am	|Am	|
|Am G	|F  E	|E (G)	|E	|

Then the Verse goes

Am blah blah then C5 then D5
COZ IM SICK OF LOVE, I WISH I NEVER MET YOU!!!!!!!!!

Jack likes to hit on open chords.
Meg is sexy, I wish she were my sister!

Solo
  
e--------------------------------------------------------------------|
b--------------------0-1-0---------------------------------0---------|
g--------------------------2-------------------------0-0/2~~2-0------|
d-------0-2-2-----2----------2-----0-2-0---------0-2------------2-2--|
a-0-0-3-------3-0--------------0-2-------2---0-2--------------------0|
e------------------------------------------3-------------------------|
[ Tab from: http://www.guitaretab.com/w/white-stripes/129947.html ]
e-----------3-0---------------------------------0---------0---------|
b---0-1-0-------------0/1----------0/1----------1---1-----1---------|
g-2-------2-----2---------2------------2--------2-2-------2-2-------|
d---------------------------2------------2------2-----2-2-2---2-----|
a-----------------0-0---------0-0----------0-0--0---------0-----2-0-|
e------------------------------------------------------------------3|

e--------------------------------------------------------------|
b--------------------------1-0-1---0-1-0---1-------------------|
g-----0--------------------2-----2-------2-2-(ect, ect,)-------|
d-----------------2-0------2----(2)--------2-------------------|
a-0-2---2-0---0-2-----2-0--0----(0)--------0-------------------|
e-----------3--------------------------------------------------|
		     
Back to verse

I like tabs that are all on one page!
David Bizant
Canberra A.C.T Australia!

Related for Lovesick tab
Advertisement will be closed in 10 seconds